Jessies Girl solo Tabs – Rick Springfield V3

 Solo transcribed from PapastachePop: 


Stave 1:

E|--------------------------12----------10--9------10--------------------------
B|------------------------------12--10---------10------10b---17b19--20--19r17--
G|--7--7--7--7--7--7--7--7-----------------------------------------------------
D|-----------------------------------------------------------------------------
A|-----------------------------------------------------------------------------
E|-----------------------------------------------------------------------------

Stave 2:

E|------------------------------------------------14--12--10—-7/9\7-----15--14--12------12----
B|--15------------------15--------------------------------------------------------15------15--
G|------16--15--14--14------16--15--14-----11/14--14--12—-11—-7/9\7---------------------------
D|--------------------------------------------------------------------------------------------
A|--------------------------------------------------------------------------------------------
E|--------------------------------------------------------------------------------------------

Stave 3:

E|--------------9--------------------10--10--10--10--
B|------10--12-----10-----8--10--12--10--10--10--10--
G|-/11--------------------7--9---12------------------
D|---------------------------------------------------
A|---------------------------------------------------
E|---------------------------------------------------

Comments are closed.