Just Give Me Reason Tabs by Pink V2

 This is one of my first tabs but the notes sound very close to perfect. let me know if 
you have any problems Martinb1@blueyonder.co.uk

E/1------------5-----------/     /-------|
B/2--8-8-8-7-5---7-----8---/     /-------|
G/3-----------------------7/  x3 /-5-4---|
D/4------------------------/     /-----7-|
A/6------------------------/     /-------|
E/6------------------------/     /-------|

E/1--7-7---------7-7-5-5-------5-5-----------------------8-7-5-3-3-|
B/2------8-8-------------7-7-------8-8-8-8-8-7-5-7-----------------|
G/3----------7-7-------------5---------------------7-7-7-----------|
D/4----------------------------------------------------------------|
A/5----------------------------------------------------------------|
E/6----------------------------------------------------------------|

E/1--7-7--------7-7-5-5---------5--------------------------8-7-5-3-3-|
B/2-------8-8-----------7-7-------8--8-8-8-8-8-7-5-7-----------------|
G/3-----------7-------------5-5----------------------7-7-7-----------|
D/4------------------------------------------------------------------|
A/5------------------------------------------------------------------|
E/6------------------------------------------------------------------|

Hope this tab worked for you :)
(Visited 1 times, 1 visits today)

Comments are closed.