Lies Tabs by Before Their Eyes V2

 : Joshua Garcia (joshuag523@aol.com)

Tabs for the song: Lies by Before Their Eyes
Please rate and let me know if you have any corrections. Thank you.


* For a video lesson from Jordan, go here:
http://www.youtube.com/watch?v=F2BbP80D7DE *


Tuning: Drop C (C G C F A D)


Intro
Guitar 1:
D||-------------------------------------------------------------------|
A||-------------------------------------------------------------------|
F||-------------------------------------------------------------------|
C||-------------------------------------------------------------------|
G||------------8-8-8-----------8-8-8-----------8-8-8-----------8-8-8--|
C||--0-0-0-0-----------0-0-0---------0-0-0-0-----------0-0-0----------|


D||-------------------------------------------------------------------|
A||-------------------------------------------------------------------|
F||-------------------------------------------------------------------|
C||-------------------------------------------------------------------| x2
G||------------7-7-7-----------7-7-7----------------------------------|
C||--8-8-8-8-----------8-8-8---------5-5-5-5-5-5-5-5-8-8-8-8-3-3-1-1--|


Guitar 2:
D||-------------------------------------------------------------------------------|
A||-------------------------------------------------------------------------------|
F||-------------------------------------------------------------------------------|
C||------------11-11-11-----------12-12-12-----------14-14-14-----------15-15-15--|
G||-------------------------------------------------------------------------------|
C||--0-0-0-0--------------0-0-0------------0-0-0-0--------------0-0-0-------------|


D||-----------------------------------------------------------------------------------------|
A||-----------------------------------------------------------------------------------------|
F||-----------------------------------------------------------------------------------------|
C||------------11-11-11-----------12-12-12-14-14-14-14-14-14-14-14-15-15-15-15-11-11-12-12--| x2
G||-----------------------------------------------------------------------------------------|
C||--8-8-8-8--------------8-8-8-------------------------------------------------------------|



Verse
Guitar 1:
D||------|
A||------|
F||------|
C||--0~--|
G||--0~--|
C||--0~--|
     .


Guitar 1:
D||--------------------------------------------------------------13~-----------------|
A||--15~-------15~-------15~-------15~-------14~-------14~-----------------14~-------|
F||----------------------------------------------------------------------------------|
C||-------12~-------12~-------12~-------12~-------12~-------12~-------12~-------12~--|
G||----------------------------------------------------------------------------------|
C||----------------------------------------------------------------------------------|


D||-------------------------------------------------------------------12~-------13~--|
A||--15~-------15~-------15~-------15~-------14~-------14~---------------------------|
F||----------------------------------------------------------------------------------|
C||----------------------------------------------------------------------------------| x2
G||-------13~-------13~-------13~-------13~-------13~-------13~--10~-------12~-------|
C||----------------------------------------------------------------------------------|



Guitar 1:
D||------------------------------------|-----------------------------------------|
A||------------------------------------|-----------------------------------------|
F||--3/15~-----14~-----12----10~---7~--|--14~---12~---15~-----14~-----12~---10~--|
C||--x/x-------x-------x-----x-----x---|--x-----x-----x-------x-------x-----x----|
G||--1/13~-----12~-----10~---8~----5~--|--12~---10~---13~-----12~-----10~---8~---|
C||------------------------------------|----------------------------------
(Visited 1 times, 1 visits today)

Comments are closed.