Light In The Darkness Tabs by Matthew Socci

 Light in the darkness
- Matthew Socci

http://www.youtube.com/watch?v=dt1juNm2oSg (listen for reference)
Gtr I (D A D G A D) - 'Untitled'
No capo.

Notes: Many of the hammerons and pulloffs, vibratos and harmonics are not shown
in the tab, however i assure you that more or less all of the notes are correct, even
though the order may be a bit different for this is my first tab and i have only been 
playing guitar for about a year and a half.
Almost every note denoted 12 has to be a harmonic, and some of them have to be
slaps. Kindly refer to the video for getting the basic idea and please go easy on me :P

Please email comments, corrections, suggestions and the rest to
the email: akhauri.yash.prolong (: Yash Akhauri)
p = pull-off, h = hammer-on, s = slide

Important: Even though i have tried my best to keep the order correct, some parts might be
mixed up in order, but i am pretty sure that they are all tabbed correctly. Also, this 
is my
first tab and i dont know music theory so the beats are something you will have to 
figure out
haha :)
Have fun!


  Gtr I
   E E E E E E E E.. E E E E E E E  E E E E E E E E E E E  E
|----0-4-5-7-7-5-4---0---4-0-------12-0h7h9p7p0-----------12-|
|----------------------5-----5-7-9-12-----------7h9-9p7p5-12-|
|----------------------------------12---------------------12-|
|-12------------------------------------------------------12-|
|-12------------------------------------------------------12-|
|-12------------------------------------------------------12-|


   E E E E E E E E..   E E E E E E E  E   E E E E E E E E   E E  E
|----0-4-5-7-7-5-4---|-0---4-0-------12-|-0h7h9p7p0-------|-----12-|
|--------------------|---5-----5-7-9-12-|-----------7h9-9p|=7p5-12-|
|--------------------|---------------12-|-----------------|-----12-|
|-12-----------------|------------------|-----------------|-----12-|
|-12-----------------|------------------|-----------------|-----12-|
|-12-----------------|------------------|-----------------|-----12-|


  E E E E E E E E E E E E E E E E E E E E E E E E E E E E E E E E E
|---2-4-5-4-2-4-2-0---2-4-5-7-5-4-2---2-4-5-7-5-4-2-----------------|
|---------------------------------------------------4-2-4-2-4-2-4h5-|
|-------------------------------------------------------------------|
|-------------------------------------------------------------------|
|-5-----------------7---------------9-------------------------------|
|-5-----------------7---------------9-------------------------------|


  E E E E E E E E   E E E E E E E E   E
|---2-4-5-4-2-4-2-|-0---2-4-5-7-5-4-|-2--|
|-----------------|-----------------|----|
|-----------------|-----------------|----|
|-----------------|-----------------|----|
|-5---------------|---7-------------|----|
|-5---------------|---7-------------|----|


  E E E E E E E E E E E E E E E E
|---2-4-5-7-5-4-2-----------------|
|-----------------4-2-4-2-4-2-4h5-|
|---------------------------------|
|---------------------------------|
|-0-------------------------------|
|-0-------------------------------|


  E E E E E E E E   E E E E E E E E   E E E E  E
|---2-4-2-2h4p2p0-|-2-0---2-4-2-2h4p|=2p0-2-0-----|
|-----------------|-----------------|-------------|
|-----------------|-----------------|---------12--|
|-----------------|-----------------|---------12--|
|-5---------------|-----7-----------|---------12--|
|-5---------------|-----7-----------|---------12--|


  E E E E E E E E   E E E E E E E E E E E E E E E E E E E E E E E E
|-2-4-5-4-2-------|-------------------------------------------------|
|-----------4-2---|-----------------2-4-5-4-2-4-2-0---2-4-5-7-5-4-2-|
|---------------4-|-2-----------------------------------------------|
|-----------------|---4-2-------------------------------------------|
|-----------------|-------4-2-----5-----------------7---------------|
|-----------------|-----------4-2-5-----------------7-----------
(Visited 1 times, 1 visits today)

Comments are closed.