Mess Is Mine Tabs – Vance Joy V6

 -------------------------------------------------------------------------------
                         MESS IS MINE - Vance Joy
-------------------------------------------------------------------------------
:CalvinMills
calvin@long-mills.ca

Tuning: Standard (EADGBe)

INTRO/VERSE
  Em      CXCX G                Em      CXCX G
e|------------|----------------|------------|----------------|
B|---8---\5X5X|---0-------0----|---0----1X1X|---0-------0----|
G|0----0--0X0X|0----0--0----0--|0----0--0X0X|0----0--0----0--| x2 (Intro)
D|------------|----------------|------------|----------------| x4 (Verse)
A|7-7---7\3X3X|----------------|--------3X3X|----------------|
E|------------|3-3---3-3-3---3-|0-0---0-----|3-3---3-3-3---3-|
  1 + 2 + 3 +  1 + 2 + 3 + 4 +  1 + 2 + 3 +  1 + 2 + 3 + 4 +

PRECHORUS
  G                C/G                                                                 G
e|----------------|----------------|----------------|----------------|----------------|-----------------|
B|---0-------0----|---1-------1----|---1-------1----|---1-------1----|---1-------1----|---0----0h1-3----|
G|0----0--0----0--|0----0--0----0--|0----0--0----0--|0----0--0----0--|0----0--0----0--|0----0--0-----0--|
D|----------------|----------------|----------------|----------------|----------------|-----------------|
A|----------------|----------------|----------------|----------------|----------------|-----------------|
E|3-3---3-3-3---3-|3-3---3-3-3---3-|3-3---3-3-3---3-|3-3---3-3-3---3-|3-3---3-3-3---3-|3-3---3-3-3----3-|
  1 + 2 + 3 + 4 +  1 + 2 + 3 + 4 +  1 + 2 + 3 + 4 +  1 + 2 + 3 + 4 +  1 + 2 + 3 + 4 +  1 + 2 + 3 +  4 +  
  G                C/G
e|----------------|----------------|----------------|----------------|----------------|
B|---0-------0----|---1-------1----|---1-------1----|---1-------1----|---1-------1----|
G|0----0--0----0--|0----0--0----0--|0----0--0----0--|0----0--0----0--|0----0--0----0--|
D|----------------|----------------|----------------|----------------|----------------|
A|----------------|----------------|----------------|----------------|----------------|
E|3-3---3-3-3---3-|3-3---3-3-3---3-|3-3---3-3-3---3-|3-3---3-3-3---3-|3-3---3-3-3---3-|
  1 + 2 + 3 + 4 +  1 + 2 + 3 + 4 +  1 + 2 + 3 + 4 +  1 + 2 + 3 + 4 +  1 + 2 + 3 + 4 +

CHORUS -strumming-
  Em      CXCX G                Em      CXCX G
e(0)-(0)--3X3X|3---3---3---3---|0---0---0-0-|3---3---3---3---|
B|8---8---5X5X|0---0---0---0---|0---0---1-1-|0---0---0---0---|
G|0---0---5X5X|0---0---0---0---|0---0---0-0-|0---0---0---0---| x2
D|9---9---5X5X|0---0---0---0---|2---2---2-2-|0---0---0---0---|
A|7---7---3X3X|2---2---2---2---|2---2---3-3-|2---2---2---2---|
E|0---0----X--|3---3---3---3---|0---0---3-3-|3---3---3---3---|
  1 + 2 + 3 +  1 + 2 + 3 + 4 +  1 + 2 + 3 +  1 + 2 + 3 + 4 +

BRIDGE
  Em               C                G                Dsus2/F#
e|----------------|----------------|----------------|---------0------|
B|---0-----0------|---1-----1------|---0-----0------|---3-------3----|
G|0-----0-----0---|0-----0-----0---|0-----0-----0---|2-----2------2--| x3
D|----------------|----------------|----------------|----------------|
A|----------------|3-3-3-3-3-3-3-3-|----------------|----------------|
E|0-0-0-0-0-0-0-0-|----------------|3-3-3-3-3-3-3-3-|2-2-2-2-2-2-2-2-|
  1 + 2 + 3 + 4 +  1 + 2 + 3 + 4 +  1 + 2 + 3 + 4 +  1 + 2 + 3 + 4 +

************************************

| /   slide up
| \   slide down
| h   hammer-on
| p   pull-off
| x   Mute note

************************************
VERSE 1
 Em             C     C  G
Talking like we used to do
Em             C C    G
It was always me and you
  Em             C  C   G
Shaping up and shipping out
  Em              C    C G
Check me in and check me out
    Em              C    C  G
Do you like walking in the rain?
           Em                    C   C   G
When you think of love, do you think of pain?
 Em               C   C   G
You can tell me what you see
Em                 C  C G
I will choose wh
(Visited 1 times, 1 visits today)

Comments are closed.