Moving To New York Tabs by The Wombats V2

 -------------------------------------------------------------------------------
                             MOVING TO NEW YORK - The Wombats
-------------------------------------------------------------------------------
: Josh B.


People mostly have problems with getting the chord voicings and picking patterns
right in this song.
Other than that, it's pretty easy to play.
So to keep things simple, I'm leaving the strumming pattern out.
I'm sure you can figure it out for yourself :)

Intro/Chorus
(chords)
-------------|
-13-----0-12-|
-10-12-12--0-|
--0-10-10-12-|
-----0-12-10-|
-------------|

Verse

"And I don't know why..."
-5-12-12-15-|
-6-13-13-15-|
-7-14-14-14-|
------------|
------------|
------------|

"It's therapeutic, somehow..."
--------5-----------5-----------12----------12----------12-------12----------15-----------|
-----6-----6-----6-----6-----13----13----13----13----13----13-------------------------15\-|
-/7-----------7----------/14----------14----------14----------14----13-12-------12-12-----|
------------------------------------------------------------------------------------------|
------------------------------------------------------------------------------------------|
------------------------------------------------------------------------------------------|

After the chorus
(chord)
---
---
---
-3-
-3-
-1-

Before the last chorus
--------5-----------5-----------12----------12----------12-------12----------15-----------------|
-----6-----6-----6-----6-----13----13----13----13----13----13-------------------------15----13\-|
-/7-----------7----------/14----------14----------14----------14----13-12-------12-12----12-----|
------------------------------------------------------------------------------------------------|
------------------------------------------------------------------------------------------------|
------------------------------------------------------------------------------------------------|

--------5-----------5-----------12----------12----------12-------12----------15-----------|
-----6-----6-----6-----6-----13----13----13----13----13----13-------------------------15\-|
-/7-----------7----------/14----------14----------14----------14----13-12-------12-12-----|
------------------------------------------------------------------------------------------|
------------------------------------------------------------------------------------------|
------------------------------------------------------------------------------------------|

(chords)
----------------|
----------------|
-10-------------|
-0--10-10-10-9--|
-0--0--12-11-10-|
----------------|


Outro
(chords)
-1-3-
-1-3-
-2-4-
-3-5-
-3-5-
-1-3-

and that very last bit...
(chords)
-3-2-1-|
-3-2-1-|
-4-3-2-|
-5-4-3-|
-5-4-3-|
-3-2-1-|
(Visited 1 times, 1 visits today)

Comments are closed.