Murderdolls – Kill Miss America

AQUI ESTA LA TAB DISFRUTENLA CAMARADAS
SI NO LES SALE NO ES XQ ESTE MAL SINO XQ SON PENDEJOS xD


 [INTRO]
G|-------------------------------------------------------|
D|-------------------------------------------------------|
A|-----------4-5-5-------6-7-7-6-7-7-7-------4-5-5-------|
E|10\--2-3-3-------4-5-5---------------2-3-3-------5-5-5-|


  [VERSO]
G|--------------------------------------------------------------|
D|--------------------------------------------------------------|
A|------------------------------5-5-5-5-5-5-5-5-----------------|
E|-5-5-5-5-5-5-5-5-5-5-5-5-5-5-5-5--------------7-7-7-7-7-7-7-7-|


  [PRE-Coro]
G|-----------------------------------------------------------|
D|-----------------------------------------------------------|
A|-----------------------------------------------------------|
E|-0-0-0-0-0-0-0-0-3-3-3-3-3-3-3-5--3-3-5--3-3-5--3-3-5--5-5-|

G|---------------------------------------------------|
D|---------------------------------------------------|
A|---------------------------------------------------|
E|-0-0-0-0-0-0-0-0-3-3-3-3-3-3-3-3-5-5-5-5-5-5-5-5-5-|


  [CORO]
G|---------------------------------|
D|---------------------------------|
A|---------4-5-5-5-------6-7-7-7-7-|
E|-2-3-3-3---------4-5-5-----------|


  [PUENTE]
G|--------------------------------------------------------------|
D|--------------------------------------------------------------|
A|--------------------------------------------------------------|
E|-5-5-5-5-5-5-5-5-0-0-0-0-0-0-0-0-5-5-5-5-5-5-5-5-0-0-0-0-0-0-0-0-|

G|---------------------------------------------------|
D|---------------------------------------------------|
A|---------------------------------------------------|
E|-5-5-5-5-0-0-0-0-5-5-5-5-0-0-0-0-5-5-5-5-5-5-5-5-5-|


  [SOLO]
G|---------------------------------|
D|---------------------------------|
A|---------------------------------|  X3
E|-5-5-5-5-5-5-5-5-0-0-0-0-0-0-0-0-|

G|---------------------------------|
D|---------------------------------|
A|---------------------------------|
E|-5-5-5-5-5-5-5-5-5-5-5-5-5-5-5-5-|


  [TERCER VERSO]
G|------------------------------------------------------|
D|------------------------------------------------------|
A|-2--2-2-2-2-2-2-2-2-2-2----5--5-5-5-5----7--7-7-7-7---|
E|------------------------3-------------5-------------3-|

G|--------------------------------------------|
D|--------------------------------------------|
A|-2--2-2-2-2-2-2-2-2-2-2-2-2----5--5-5-5-5---|
E|----------------------------3-------------5-|

G|-----------------------------------------------------------|
D|-----------------------------------------------------------|
A|-7--7-7-7-5-5-5-5-2--2-2-2-2-2-2-2-2-2-2-2----5--5-5-5-5---|
E|-------------------------------------------3-------------5-|

G|---------------------------------------------|
D|---------------------------------------------|
A|-7--7-7-7-7-7-7-7-9-9-9-9-9-9-9-9-9-9-9-9-9\-|
E|---------------------------------------------|


  [FINAL]
G|--------------------------------------------------------------|
D|--------------------------------------------------------------|
A|--------------------------------------------------------------|
E|-5-5-5-5-5-5-5-5-0-0-0-0-0-0-0-0-5-5-5-5-5-5-5-5-0-0-0-0-0-0-0-0-|

G|----------------------------------------------------|
D|----------------------------------------------------|
A|---------7-7-7-7---------7-7-7-7--------------------|
E|-5-5-5-5---------5-5-5-5---------5-5-5-5-5-5-5-5-5\-|

Comments are closed.