My Girl Tabs by Agua De Annique

 Play all chords as barree!
==========================

[Intro]
e|---------------------------------------------------------------------|
B|---------------------------------------------------------------------|
G|------12-10------9---------(play this first riff 4 times)------------|
D|---10---------10---10------------------------------------------------|
A|-8----------8--------------------------------------------------------|
E|---------------------------------------------------------------------|

e|---------------------------------------------------------------------|
B|---------------------------------------------------------------------|
G|-------14-12---------14-12--------12-14--------14-12-----------------|
D|----12------------12-----------12-----------12-----------------------|
A|-10------------10-----------10-----------10--------------------------|
E|---------------------------------------------------------------------|

e|---------------------------------------------------------------------|
B|---------------------------------------------------------------------|
G|------12-10------9-----------12-10-----------------------------------|
D|---10---------10---10-----10-----------------------------------------|
A|-8----------8-----------8-----------8--7--5--------------------------|
E|---------------------------------------------------------------------|


[Verse]

A|-----5-------------------------------------
   My hands are tied ... I'm on your side
A|----7h8-7---7h8-7-------7h8----------------
   You are my girl
A|----5--------------------------------------
   I hold your hand and understand
A|----7h8-7---7h8-7-----7h8--5---------------
   You are my girl, my girl


[Riff at chorus begin]

e|------------------------------------------------------------------------|
B|--------10--------------------------------------------------------------|
G|--9-7------9----9-7---9-------------------------------------------------|
D|------7------7------7---7-9---------------------------------------------|
A|------------------------------------------------------------------------|
E|------------------------------------------------------------------------|


[Chorus]

F           Em                
(Visited 1 times, 1 visits today)

Comments are closed.