My Oldest Friend Tabs – Have Mercy Vsion 4

 Track: My Oldest Friend
Artist: Have Mercy
 My Oldest Friend - EP (2012)
Tuning: E Standard (E A D G B e)

---

: Noah Maranesi
Website: Instagram.com/n04hz_ark

---

Verse 1 (Finger pick)

e|--------------|--------------|--3----------|
B|--2--------2--|--3--------3--|--3----------|
G|--------2-----|--------4-----|--0----------|
D|-----2--------|-----4--------|--0----------|
A|--0-----------|--2-----------|--2----------|
E|--------------|--------------|--3----------|


Verse 2 (Finger pick)

e|--------------|--------------|-------------|
B|--10----------|--7-----------|--3-p0-------|
G|------11------|-----7--------|-------------|
D|--0-----------|--------------|-------------|
A|--------------|--------------|-------------|
E|--------------|--7-----------|--3----------|


Alternative Verse 2 (Finger pick)

e|--5-p2--------|--2-----------|-------------|
B|--------------|-----3--------|--3-p0-------|
G|--------------|--------------|-------------|
D|--0-----------|--------------|-------------|
A|--------------|--2-----------|-------------|
E|--------------|--------------|--3----------|


Alternative Verse 2 for 2 guitars

e|--------------|--------------|-------------|
B|--------------|--------------|-------------|
G|--------------|--------------|-------------|
D|--0-----------|--------------|-------------|
A|--------------|--2-----------|-------------|
E|--------------|--------------|--3----------|

e|--------------|--------------|-------------|
B|--10-\-7------|--7--\--3-----|--3--\--0----|
G|--------------|--------------|-------------|
D|--------------|--------------|-------------|
A|--------------|--------------|-------------|
E|--------------|--------------|-------------|
(Visited 1 times, 1 visits today)

Comments are closed.