Nightmares Tabs – Disturb The Dead

 -------------------------------------------------------------------------------
                             Nightmares - Disturb The Dead
-------------------------------------------------------------------------------
: Mitchel Nash
 mitchelnash@aim.com

Tuning: Standard
Verse 
e|---------------------------------------------------------------------------|
B|---------------------------------------------------------------------------|
G|---------------------------------------------------------------------------|
D|---------------------------------------------------------------------------|
A|--9-----5-----7-7----9-----5-----7-7-----9-----5-----7-7----9--9--9--5--7-7|
E|--7-----3-----5-5----7-----3-----5-5-----7-----3-----5-5----7--7--7--3--5-5| x4
Chorus
e|---------------------------------------------------------------------------|
B|---------------------------------------------------------------------------|
G|---------------------------------------------------------------------------|
D|---------------------------------------------------------------------------|
A|--5--5--5--7--7--7--9--9--9-7--7--7--5--5--5-7--7--7-9---------------------|
E|--3--3--3--5--5--5--7--7--7-5--5--5--3--3--3-5--5--5-7---------------------| x3


Repeated 4 times.


************************************

| /   slide up
| \   slide down
| h   hammer-on
| p   pull-off
| ~   vibrato
| +   harmonic
| x   Mute note
| b   Bend
| pb  Pre-bend
| br  Bend release
| pbr Pre-bend release
| brb Bend release bend

************************************
(Visited 1 times, 1 visits today)

Comments are closed.