No Good In Goodbye Tabs – The Script Vsion 1

 NO GOOD IN GOODBYE      -       the Script

Capo 2

Intro:
     1           2           3           4
e|--/----------------------------------------------/
B|5s/10-10-10-10-10-10-10-10-10-10-10-10-10-10-10s8/
G|--/----------------------------------------------/
D|--/----------------------------------------------/
A|--/----------------------------------------------/
E|--/----------------------------------------------/

  1       2       3       4        
e|--------------------------------/
B|8-8-8-8-8-8-8-8-8-8-8-8-8-8-8-8s/
G|--------------------------------/
D|--------------------------------/
A|--------------------------------/
E|--------------------------------/

  1           2           3           4
e|-----------------------------------------------/
B|12-12-12-12-12-12-12-12-12-12-12-12-12-12-12s14/
G|-----------------------------------------------/
D|-----------------------------------------------/
A|-----------------------------------------------/
E|-----------------------------------------------/

  1           2           3           4
e|---------------------------------------------/
B|14s10-10-10-10-10-10-10-10-10-10-10-10s5-5-5s/
G|---------------------------------------------/
D|---------------------------------------------/
A|---------------------------------------------/
E|---------------------------------------------/

A  Aaa – Em7  aa – G  aa – D  aah     2x 


  Em/B                              C
  1       2       3       4       1       2       3       4
e|3-------3-------3-------3---5--/3-------3-------3-------3---5--/
B|----5-------5-------5----------/----5-------5-------5----------/
G|--4---4---4---4---4---4---4---4/--5---5---5---5---5---5---5---5/
D|-------------------------------/-------------------------------/
A|-------------------------------/-------------------------------/
E|-------------------------------/-------------------------------/
1  All the things that we've lost   Breaking up comes at a cost
2  Every word I try to choose       Either way I'm gonna lose


  G/D                               D
  1       2       3       4       1       2       3       4
e|7-------7-------7-------8---7--/5-------5-------5-------7------/
B|----8-------8-------8----------/----7-------7-------7-------7--/
G|--7---7---7---7---7---7---7---7/--7---7---7---7---7---7---7---7/
D|-------------------------------/-------------------------------/
A|-------------------------------/-------------------------------/
E|-------------------------------/-------------------------------/
1  I know i'll miss this mistake                                  
2  Can't take the ache from heart -  break           Oh but as you


  C                                 D
  1       2       3       4       1       2       3       4
e|3-------3-------3-------3---5--/5-------5-------5-------10-----/
B|----5-------5-------5----------/----7-------7-------7----------/
G|--5---5---5---5---5---5---5---5/--7---7---7---7---7---7--------/
D|-------------------------------/-------------------------------/
A|-------------------------------/-------------------------------/
E|-------------------------------/-------------------------------/
2  walk away          you don’t     hear me say


Chorus:
A 
    Where's the "good" in goodbye
Em7 
      Where's the "nice" in nice try
G 
    Where's the "us" in trust gone
D                                 A 
    Where's the "soul" in soldier     on
Now I'm the "low" in lonely
Em7 
     ‘Cos I don't own you only
G 
    I can take this mistake but
D 
    I can't take the "ache" from heartbreak

A        Em7
   No –        oh 
                                     G        D         
I can't take the "ache from heart –    break  


  Em/B                              C
  1       2       3       4       1       2       3       4
e|3-------3-------3-------3---5--/3-------3-------3-------3---5--/
B|----5-------5-------5----------/----5-------5-------5----------/
G|--4---4---4---4---4---4---4---4/--5---5---5---5---5---5-

Comments are closed.