No One Knows Tabs by Green Day V2

 Important:
This song is in Half Step Down Tuning, but if you have your guitar in Standard Tuning,
just make notes in the previous fret (the Intro can't be played in Standard Tuning).


Intro (In the song, this is the Bass Line, but I adapted it to play it on guitar):

e|------------------------------------------------------------------------------|
B|------------------------------------------------------------------------------|
G|------------------------------------------------------------------------------|
D|---5---5------5---7p5---5---4---4------2---2------2--5p2----------------------|
A|--5---5-5----5-------------5---5-5----5---5-5----4--4-----4h5p4-4-2-4-2-0-----|
E|-7---7---7--6---6-----6---5---5---5--4---4---4--5-------------------------0-2-|

e|------------------------------------------------------------------------------|
B|------------------------------------------------------------------------------|
G|------------------------------------------------------------------------------|
D|---5---5---5------7-----7---7---7---7---7---7---7-----------------------------|
A|--5---5-------4h5---4h5---5----7---7---7---7----------------------------------|
E|-3---3---3--------------------5---5---5---5---5---7p5-------------------------|

e|------------------------------------------------------------------------------|
B|------------------------------------------------------------------------------|
G|------------------------------------------------------------------------------|
D|---5---5---5------7-----7---7---7---7---7---7---7-----------------------------|
A|--5---5-------4h5---4h5---5----7---7---7---7----------------------------------|
E|-3---3---3--------------------5---5---5---5---5---7p5-------------------------|

e|------------------------------------------------------------------------------|
B|------------------------------------------------------------------------------|
G|------------------------------------------------------------------------------|
D|---5---5---5------7-----7---------5---5---5------7-----7----------------------|
A|--5---5-------4h5---4h5----------5---5-------4h5---4h5------------------------|
E|-3---3---3---------------0h2----3---3---3-----------------0h2-----------------|

e|------------------------------------------------------------------------------|
B|------------------------------------------------------------------------------|
G|------------------------------------------------------------------------------|
D|---5---5---5------7-----7---7---7*--------------------------------------------|
A|--5---5-------4h5---4h5---5-----7*--------------------------------------------|
E|-3---3---3----------------------5*--------------------------------------------|


Verse (Palm mute):

e|------------------------------------------------------------------------------|
B|------------------------------------------------------------------------------|
G|------------------7777777777777777--------------------------------------------|
D|-5555555555555555-7777777777777777-7777777777777777---------------------------|
A|-5555555555555555-5555555555555555-7777777777777777---------------------------|
E|-3333333333333333------------------5555555555555555---------------------------|

e|------------------------------------------------------------------------------|
B|------------------------------------------------------------------------------|
G|------------------7777777777777777--------------------------------------------|
D|-5555555555555555-7777777777777777-7777777777777777---------------------------|
A|-5555555555555555-5555555555555555-7777777777777777---------------------------|
E|-3333333333333333------------------5555555555555555---------------------------|


Chorus:

e|------------------------------------------------------------------------------|
B|------------------------------------------------------------------------------|
G|----------7
(Visited 1 times, 1 visits today)

Comments are closed.