Category: Chords

Buttons And Bows chords – Rab Noakes

 Rab Noakes - Buttons And Bows


CAPO: 4th Fret



[INTRO:]  C F C F C F C F C F G C 
 
[VERSE 1:]

East is east and west is west

And the wrong one I have chose
 F C F 
Let's go where they keep on wearin'
       C F C F 
Those frills and flowers and buttons and bows
 C F G C   
Rings and things and buttons and bows


[VERSE 2:]
      
Don't bury me in this prairie

Take me where the cement grows
 F C F 
Let's move down to some big town
            C F C F 
Where they love a gal by the cut of her clothes
     C F G C C7 
And you'll stand out in buttons and bows


[BRIDGE:]
      F 
I'll love you in buckskin
                           C 
Or skirts that you've homespun
         
But I'll love you longer, stronger where
      D7 G 
Your friends don't tote a gun


[VERSE 3:]
    C 
My bones denounce the buckboard bounce

And the cactus hurts my toes
 F C F 
Let's vamoose where gals keep usin'
       C F C F 
Those silks and satins and linen that shows
     C F G C C7 
And I'm all yours in buttons and bows


[INSTRUMENTAL:]  F C G 


[VERSE 4:]
    C 
My bones denounce the buckboard bounce

And the cactus hurts my toes
 F C F 
Let's vamoose where gals keep usin'
       C F C F 
Those silks and satins and linen that shows
     C F G C  
And I'm all yours in buttons and bows


[VERSE 5:]
  
Gimme eastern trimmin' where women are women

In high silk hose and peek-a-boo clothes

And French perfume that rocks the room
                      G C 
And I'm all yours in buttons and bows
 G C G C 
Buttons and bows, buttons and bows

Csak Néhány Perc chords – Csillag Endre

 Artist: Endre Csillag (feat. Attila Pataky)
Song: csak néhány perc

[Intro]

 A E Gbm D 


[Verse 1]

 A E Gbm 
Az idÅ‘ gyúrja, toldja, megragasztja, amit kell
     D A 
Ami nélkül nem lehetne élni sem
        E Gbm  
Lehet, megtaláltam benned újra azt,
     D 
Aki nélkül nem lehetnék szabad


[Chorus]

 A E 
Csak néhány perc elÅ‘nyöd van
 Gbm D 
Most égj nekem, a szerelem ezt teszi velünk, ó igen
 A E 
Csak néhány perc elÅ‘nyöd van
 Gbm D 
Most égj nekem, vágyaink ezt teszik velünk, ó igen


[Verse 2]

 A E Gbm 
Végigérni mind a kettÅ‘nk sorsán és várni
      D A 
Csak várni, hogy újra átölelj,
      E Gbm 
Hogy én legyek az a fontos, aki kell
     D 
Aki nélkül nem lehetnék szabad


[Chorus]

 A E 
Csak néhány perc elÅ‘nyöd van
 Gbm D 
Most égj nekem, a szerelem ezt teszi velünk, ó igen
 A E 
Csak néhány perc elÅ‘nyöd van
 Gbm D 
Most égj nekem, vágyaink ezt teszik velünk, ó igen


[Bridge]

 Gbm D 
Lehetne másképp, de nekünk jó ez így
 Gbm D 
Kegyelmezz meg, ne szólj bele és ne segíts
 E Gbm E Gbm 
Hagyd, hogy megmutassuk, dalba fogjuk, átláncoljuk
 E Gbm D 
Eltáncoljuk, megtiporjuk bohóc életünk!


[Solo]

 A  -  E  -  Gbm  -  D  (2x)


[Outro]

 B Gb 
Csak néhány perc elÅ‘nyöd van
 Abm E 
Most égj nekem, a szerelem ezt teszi velünk, ó igen
 B Gb 
Csak néhány perc elÅ‘nyöd van
 Abm E 
Most égj nekem, vágyaink ezt teszik velünk, ó igen

Rebecca Sugar – Steven Universe Theme Tabs – Misc Cartoons

 This is my version of an frequently poorly tabbed song from a cartoon! Enjoy!

 Simone Alexander


   "We are the crystal gems, we'll always save the day, and if you think we can't"
e|--------------------------------------------------------------------------------|
B|-----0--------------------------------------------------------------------------|
G|---------2--0--2-----------------4---2---0----2---0-------4---2---0----2--0-----|
D|--0------------------4----1---------------------------0-------------------------|
A|--------------------------------------------------------------------------------|
E|--------------------------------------------------------------------------------|

   "We'll always find a way, that's why the people of this world, believe in;"
e|-----------------------------------------------------------------------------|
B|-----------------------------------------------------------------------------|
G|--------4----2--0----2--0-----------4---2--0--2---4--2-----------------------|
D|---1--------------------------0----------------------------4-----------------|
A|-----------------------------------------------------------------2--0--------|
E|------------------------------------------------------------------------3----|

  "Garnet, Amethyst, and Pearl... and Steven!"
e|---------------------------------------------------------------------------|
B|-------------------------0-------------------------------------------------|
G|--4--2---0--2--0----------------2----7---4---------------------------------|
D|---------------------0-----------------------------------------------------|
A|---------------------------------------------------------------------------|
E|---------------------------------------------------------------------------|

Adijo Knapi chords – Orlek

 [Intro]

 F Am B F F Am B F 


[Verse]

 F Am 
Samo nekaj let je Å¡e ostalo,
      B F 
in gverk se bo zaprl,
                       Am 
za njim ostal bo spomenik na trgu
        B F 
in ob njem zarustan hunt,
              Am     
donferca ne bo vozila,
  B F 
kolma na Å¡tacjon,
                Am 
ampak bo utrujena krasila
 B F 
nov ajzenpon.


[Refrain]

 Dm Am B F 
Dvesto let je rod za rodom grizel v to zemljo,
 Dm Am B F 
Dvesto let je rod za rodom preklinjal pod zemljo.


[Verse]

 F Am  
Pesem krampov bo zamrla
          B F 
in kamerati se bojo razšli,
                  Am      
nekam v kot v muzej se bo zadigal
    B F 
v Å¡til popljuvan herc.
                  Am 
Kdo odslej bo Å¡trajke delal
    B F  
in kdo frdinste klel
                Am 
kdo odslej bo fano nosil
         B F 
ko kak hajer bo umrl.


[Refrain]

 Dm Am B F 
Dvesto let je rod za rodom grizel v to zemljo,
 Dm Am B C 
Dvesto let je rod za rodom preklinjal pod zemljo.


[Bridge]

 F Am B F F Am B F F Am B F 

[Refrein]
 Dm Am B F 
Dvesto let je rod za rodom grizel v to zemljo,
 Dm Am B F 
Dvesto let je rod za rodom preklinjal pod zemljo.


[Verse]

 F Am 
Skozi vašhav bo le vahtar hodil,
          B F 
skoz gezenke bo vleku prepih,
                   Am 
nihče ne bo več huntov rajdal
      B F 
in nihče po hofu klel,
                Am 
pesem krampov bo zamrla
         B F 
in kamerati se bojo razšli
                                  Am 
in ko se zadnji zajbrovc bo na britof znajdu
         B F 
z njim umrl bo Å¡e spomin.


[Refrain]

 Dm Am B F 
Dvesto let je rod za rodom grizel v to zemljo,
 Dm Am B F 
Dvesto let je rod za rodom preklinjal pod zemljo.

Seek First chords – Housefires

 Seek First – Housefires III

Capo 4th fret

[Verse]

 C G C G 
Peace that passes, my understanding
 C Em C G 
Love that conquers, my fear and regret
 C G C G 
Joy unending, eternal pleasure
 C Em C G 
In Your presence, my risen King


[Chorus]

             D Em C G                
And I will seek first, Your kingdom
         D Em C G 
I will seek first, Your righteousness
          D Em C G 
And everything I need, You will provide for me
                 D Em C G 
My heart is to seek first, Your kingdom 
          C G C G  
Oh oh oh oh oh, oh oh oh oh oh 
          C Em C G  
Oh oh oh oh oh, oh oh oh oh oh 


[Bridge]

        C G C G 
You’re all I really want, You’re all I really need
        C Em C G   
Father every breath I’ve got, You have given it to me        x2

La Hoguera De Los Continentes chords – La Raíz

 [Intro]

 Am Am G G  (x2)


[Verse 1]

           Am G 
En esta hoguera baila el sol de Tiahuanaco,
           Am G 
Entre ayahuasca y tabaco cantan y colorean su piel los guerreros
           Am G 
Esta hoguera que es ciprés sangrante de arte,
             Am 
Arde entre un mar de favelas y cárceles,
                   G 
Haciendo de los infiernos el cielo


[Chorus]

        F C G Am 
Y en el trozo de hoguera que a mí me tocó, bailan las calles de Cuba
        F C G Am 
Con un trombón y una tuba que lloran sonidos de revolución
        F C G Am 
Y en el trozo de hoguera que a mí me tocó, hay libros de Alejandría
        F C G Am 
Y el fuego en sus poesías desprende el olor del viejo luchador


[Instrumental]

 Am Am G G  x2


[Verse 2]

           Am 
En esta hoguera baila Senegal
           G 
Lleva bailando mil y una noches Bagdad
           Am G 
Mueve el cuerpo quien es feliz solo siendo
           Am G 
En esta hoguera alzan la voz las mujeres de Gaza y su honor,
           Am G 
A la orilla del fuego veo todo el mundo que quiero veo


[Chorus]

        F C G Am 
Y en el trozo de hoguera que a mí me tocó mueve su vientre Estambul
        F C G Am 
Entre notas de un viejo laúd despiertan serpientes que el tiempo durmió
        F C G Am 
Y en el trozo de hoguera que a mí me tocó, hay libros de Alejandría
        F C G Am 
Y el fuego en sus poesías desprende el olor del viejo luchador


[Bridge]

        F C G Am 
Cantamos para levantar la marea a contracorriente
        F C G Am 
Volviendo a juntar África América, y que suene la voz del esclavo
        F C G Am 
Preferimos bailar en la hoguera de los continentes
        F C G Am 
Gritando “también tenemos corazón los desafinados”


[Outro]

        F C G Am 
Ba ba uoh, ba ba ieeh, ba ba uoh oh, ba ba ba ieeh
        F C G Am 
Ba ba uoh, ba ba ieeh, ba ba uoh oh, ba ba ba ieeh

Another Kinda Love solo Tabs – John Mayall & The Bluesbreakers

 John Mayall & The Bluesbreakers - Another kinda love
Album -  A hard road - 1967

Key of G minor
Listen to the track for the correct timing and feel

 John Brennan - 20/08/16


[1.19]

e|-----------------------------13--------------------------------------------|
B|--11h13-11h13-13b15~~--------13--13-11----11-------------------------------|
G|---------------------------------------12----------------------------------|
D|---------------------------------------------------------------------------|
A|---------------------------------------------------------------------------|
E|---------------------------------------------------------------------------|



e|----3----------------6------------6-10-6------6----------------------------|
B|---3-6-3--6b8~rp8~----------------------8-6-8------------------------------|
G|---------------------------------------------------------------------------|
D|---------------------------------------------------------------------------|
A|---------------------------------------------------------------------------|
E|---------------------------------------------------------------------------|



e|---10p8p6-6---8-6-8~-6~----------------------------------------------------|
B|---------8-------------8-6-8-6\--------------------------------------------|
G|---------------------------------------------------------------------------|
D|---------------------------------------------------------------------------|
A|---------------------------------------------------------------------------|
E|---------------------------------------------------------------------------|

[1.35]

e|-----------------------------------------3-----------3---------------------|
B|--8---8-11-8--8\------------------------3--6b~-----6b-6-3------------------|
G|--10b~-------10\---5b7r5p3--5-3-3----5b7-----------------5-3---5-3---------|
D|---------------------------5---5----------------------------5--------------|
A|---------------------------------------------------------------------------|
E|---------------------------------------------------------------------------|




e|--6-3-6-------8-6-8-6-8b10-8b10-8-6-8-6--6---------------------------------|
B|--6------------------------------------8-----------------------------------|
G|---------------------------------------------------------------------------|
D|---------------------------------------------------------------------------|
A|---------------------------------------------------------------------------|
E|---------------------------------------------------------------------------|

[1.47]

e|--13b-13-10----------------------------------------------------------------|
B|-----------13-11---13-11-13b15r13p11-13-11---------------------------------|
G|----------------12------------------------12-------------------------------|
D|---------------------------------------------------------------------------|
A|---------------------------------------------------------------------------|
E|---------------------------------------------------------------------------|


[1.51]

e|---15-------15--15----15---------15--15------------------------------------|
B|---18b20--18--18------18b20----18--18---18-15------------------------------|
G|----------------------------------------------17-15-17b19r17p15---17-15----|
D|----------------------------------------------------------------17-----17--|
A|---------------------------------------------------------------------------|
E|---------------------------------------------------------------------------|

e|--18b20-18-15--------------------------------------------------------------|
B|-------------15------------------------------------------------------------|
G|---------------------15-17-15-17-15----------------------------------------|
D|-----------------------------------17-15-----------------------------------|
A|----------------------------------------17-16-15s13-15-13--13--------------|
E|---------------------------------------

Dont Wont Cant Tabs – Biffy Clyro

 Biffy Clyro – Don’t, Won’t, Can’t

 Ellipsis
Tuning: Drop C#


[Intro]

D#|-----------------------
A#|--15-15-15----11-11-13-
F#|--15-15-15----10-10-12-
C#|-/17-17-17----12-12-14-
G#|-----------------------
C#|-----------------------


[Verse]

D#|------------------------------------------------------
A#|-10-10-8--10-10-10-8--10-11-11-13-10------10-10-8--10-
F#|-10-10-9--10-10-10-9--10-10-10-12-10------10-10-9--10-
C#|-12-12-10-12-12-12-10-12-12-12-14-12------12-12-10-12-       x2
G#|------------------------------------------------------
C#|-------------------------------------12\0-------------


[Pre-Chorus]

D#|-------------------------
A#|-15-15-15-15-11-11-13-13-
F#|-15-15-15-15-10-10-12-12-
C#|-17-17-17-17-12-12-14-14-    x2
G#|-------------------------
C#|-------------------------

[Pre-Chorus] (Extra):

D#|-------------
A#|-15/18-17-15-
F#|-------------
C#|-------------
G#|-------------
C#|-------------


[Chorus]

D#|-------------------------------------------------
A#|-10-10-10-10-13-13-13-13-11-11-11-11-11-11-8--8--
F#|-10-10-10-10-14-14-12-12-10-10-10-10-12-12-9--9--
C#|-12-12-12-12-15-15-14-14-12-12-12-12-12-12-10-10-
G#|-------------------------------------------------
C#|-------------------------------------------------

[Chorus] (Extra):

D#|--------------------------------------------------------------
A#|--------------------------------------------------------------
F#|--------------------------------------------------------------
C#|-----5-7-5-----------5-7-5-----------5-7-5-----------5-7-8-7v-       x2 
G#|-5-8-------8-7-5-7-8-------8-7-5-7-8-------8-7-5-7-8----------
C#|--------------------------------------------------------------


[Bridge]

D#|-------------------------------------
A#|-10-10-8--10-10-10-8--10-11-11-13-10-
F#|-10-10-9--10-10-10-9--10-10-10-12-10-
C#|-12-12-10-12-12-12-10-12-12-12-14-12-        
G#|-------------------------------------
C#|-------------------------------------

D#|-----------------------------------------------
A#|-----------------------------------------------
F#|-----------------------------------------------
C#|-----------------------------------------------
G#|-12-0----12----0-0-12----0-0----15-15-15-15-15-
C#|-12-0----12----0-0-12----0-0----15-15-15-15-15-


[Verse]

D#|------------------------------------------------------
A#|-10-10-8--10-10-10-8--10-11-11-13-10------10-10-8--10-
F#|-10-10-9--10-10-10-9--10-10-10-12-10------10-10-9--10-
C#|-12-12-10-12-12-12-10-12-12-12-14-12------12-12-10-12-       
G#|------------------------------------------------------
C#|-------------------------------------12\0-------------

[Pre-Chorus] (Extra):

D#|-------------
A#|-15/18-17-15-
F#|-------------
C#|-------------
G#|-------------
C#|-------------


[Chorus]

D#|-------------------------------------------------
A#|-10-10-10-10-13-13-13-13-11-11-11-11-11-11-13-13-
F#|-10-10-10-10-14-14-12-12-10-10-10-10-10-10-12-12-
C#|-12-12-12-12-15-15-14-14-12-12-12-12-12-12-14-14-
G#|-------------------------------------------------
C#|-------------------------------------------------


D#|-------------------------------------------------
A#|-10-10-10-10-13-13-13-13-11-11-11-11-11-11-8--8--
F#|-10-10-10-10-14-14-12-12-10-10-10-10-12-12-9--9--
C#|-12-12-12-12-15-15-14-14-12-12-12-12-12-12-10-10-
G#|-------------------------------------------------
C#|-------------------------------------------------

[Chorus] (Extra):

D#|--------------------------------------------------------------
A#|--------------------------------------------------------------
F#|--------------------------------------------------------------
C#|-----5-7-5-----------5-7-5-----------5-7-5-----------5-7-8-7v-       x4 
G#|-5-8-------8-7-5-7-8-------8-7-5-7-8-------8-7-5-7-8----------
C#|--------------------------------------------------------------


[Interlude]

D#|---------------------------------------------------
A#|---------------------------------------------------
F#|---10---9/12-------9-12-7------10---9

Mama Tried chords – The Everly Brothers

 Mama Tried:The Everly Brothers.
Album - Roots - on WARNER Records
in 1968.

INTRO:  E 

#1.
 E A 
The first thing I remember knowin' was a 
 E A E 
lonesome whistle blowin' and a young'un's 
                        B 
dream of growing up to ride.
      E A E 
On a freight train leavin' town not knowin' 
           A E 
where I'm bound and no one could change my 
 B E 
mind but Mama tried.

#2.
 E A E 
One and only rebel child from a family meek 
     A E  
and mild, my Mama seemed to know what lay 
    B 
in store.
             E A 
In spite of all my Sunday learnin', towards 
     E A E 
the bad I kept a-turnin', til Mama couldn't 
 B E 
hold me anymore.

CHORUS:
 E A 
And I turned twenty-one in prison doing life 
         E 
without parole.
    Dbm B 
No one could steer me right but Mama tried, 

Mama tried.
      E A 
Mama tried to raise me better but her pleading 
   E 
I denied.
                        B E 
That leaves only me to blame, 'cause Mama tried.

#3.
 E A E 
Dear old Daddy, rest his soul, left my Mom a 
       A 
heavy load.
     E B 
She tried so very hard to fill his shoes.
         E A E 
Working hours without rest, wanted me to have 
     A 
the best.
     E B E 
She tried to raise me right, but I refused.


CHORUS:
 E A 
And I turned twenty-one in prison doing life 
         E 
without parole.
    Dbm B 
No one could steer me right but Mama tried, 

Mama tried.
      E A 
Mama tried to raise me better but her pleading 
   E 
I denied.
                        B E 
That leaves only me to blame, 'cause Mama tried.


OUTRO: E



A sixties smash from Kraziekhat.


God Your Mama And Me chords – Florida Georgia Line

 [Verse 1]
      C G D Em 
That Sunday morning choir calling, church doors open wide
     C G D Em 
That hallelujah, shoot right through ya, make you feel alive
     C G 
That key under the mat, you know right where it's at
      D Em 
It's waiting with the porch light on
              C G D 
Don't bother calling, no need for knocking, just come on home

Come on home, my love is


[Chorus]
 C G D Em 
Never gonna run dry, never gonna come up empty
 C G D Em 
Now until the day I die, unconditionally
    C G 
You know I'm always gonna be here for ya
 D Em 
No one's ever gonna love you more than
 C G 
God, your mama, and me
 D Em 
God, your mama, and me
 C G D Em            
Unconditionally, God, your mama, and me


[Verse 2]
 C G D Em 
Loud as shotgun, angels singing with the radio
 C G D Em 
Praying with you every mile down any dead end road
         C G 
You can tell me every secret that you been keeping
 D Em 
I'll hold it, lock and key
             C G D 
Up with you all night, holding you all night, I never leave

You better believe my love is



[Chorus]
 C G D Em 
Never gonna run dry, never gonna come up empty
 C G D Em 
Now until the day I die, unconditionally
    C G 
You know I'm always gonna be here for ya
 D Em 
No one's ever gonna love you more than
 C G 
God, your mama, and me
 D Em 
God, your mama, and me
 C G D Em            
Unconditionally, God, your mama, and me

[solo]

 C G D Em  

[Bridge]
 C G 
Every step you take, I'll be as sure as your shadow
 D Em 
Every move you make, you know I'm part of you wherever you go
 C G D 
Baby, you know my love is



[Chorus]
 C G D Em 
Never gonna run dry, never gonna come up empty
 C G D Em 
Now until the day I die, unconditionally
    C G 
You know I'm always gonna be here for ya
 D Em 
No one's ever gonna love you more than
 C G 
God, your mama, and me
 D Em 
God, your mama, and me
 C G D Em            
Unconditionally, God, your mama, and me

Anywhere chords – Passenger Vsion 1

 [Chords]:
G: 320033
D: xx0232
Cadd9: x32033
Em7: 022033
B7: x21202


[Intro]
 G D G Cadd9 Em7 D  x4

[Verse 1]
 G D G        
 If you get out on the ocean
 Cadd9 Em7 D 
 If you sail out on the sea
 G D G 
 If you get up in the mountains
 Cadd9 Em7 D 
 If you go climbing on trees
 G D G 
 Oh through every emotion
 Cadd9 Em7 D 
 When you know that they don't care
 G D G 
 Darling, that's when I'm with you
 Cadd9 Em7 D 
 Oh I'll go with you anywhere

[Instrumental]
 G D G Cadd9 Em7 D  x2

[Verse 2]
 G D G 
 If you get up in a jet plane
 Cadd9 Em7 D 
 Or down in a submarine
 G D G 
 If you get onto the next train
 Cadd9 Em7 D 
 To somewhere you never been
 G D G 
 If you wanna ride in a fast car
 Cadd9 Em7 D 
 And feel the wind in your hair
 G D G 
 Darling just look beside you
 Cadd9 Em7 D 
 Oh I'll go with you anywhere

[Instrumental]
 G D G Cadd9 Em7 D 

[Chorus]
 Cadd9 Em7         
 Oh and I will be with you
 D G D 
 When the darkest winter comes
 Cadd9 Em7 
 Oh and I will be with you
 D G D Cadd9 
 To feel the California sun      
          Em7 
 Oh and I will be with you
 B7 Em7 D Cadd9           
 In the nighttime when it's through
 D 
 Oh I'll go anywhere with you

[Instrumental]
 G D G Cadd9 Em7 D  x2

[Verse 3]
 G D G 
 If you get up in the hillside
 Cadd9 Em7 D 
 If you ride out on the plains
 G D G 
 If you go digging up dirt
        Cadd9 Em7 D 
 If you go out dancing in the rain
 G D G 
 If you go chasing them rainbows
 Cadd9 Em7 D 
 Just to find the gold ain't there
 G D G 
 Darling just look behind you
 Cadd9 Em7 D 
 Oh I'll go with you anywhere

[Instrumental]
 G D G Cadd9 Em7 D 

[Chorus]
 Cadd9 Em7         
 Oh and I will be with you
 D G D 
 When the darkest winter comes
 Cadd9 Em7 
 Oh and I will be with you
 D G D Cadd9 
 To feel the California sun      
          Em7 
 Oh and I will be with you
 B7 Em7 D Cadd9           
 In the nighttime when it's through
 D 
 Oh I'll go anywhere with you

[Instrumental]
 Em7 D Cadd9 G  x2

[Chorus]
 Cadd9 Em7         
 Oh and I will be with you
 D G D 
 When the darkest winter comes
 Cadd9 Em7</spa

Dra Tilbake chords – Erik og Kriss

  [Intro] 
  F G Am   x4


[Verse]

  F G 
Samholdet unnslapp, eller ble utsatt
     Am 
for unntatt av unntakene er vi utsatt, 
     F G   
for usanne utsagn og brutale budskap 
     Am 
og du satt i Newcastle uten alt dustprat.
    F G 
Da er det som om Gud skapte gutteprat som apparat
        Am 
for akkurat, når du satte kursen du kan utenat,
   F G 
glemmer sted de andre kaller utgåtte vennskap
     Am 
og du skaper goosebumps med armene utstrakt.


[Verse]  

  F G 
Det er sånn det blir med tiden, vennene spres med vin
     Am 
så møtes vi å føler som om alle var her hele tiden,
  F G 
husker godt hvordan ting var før, det er klart jeg savner det,
     Am 
da fasttelefon var det vi knyttet oss sammen med
  F G 
Så kanskje vi kan dra tilbake, for å føle selv,
     Am 
gjenoppleve stemningen og spenningen en lørdagskveld
  F G 
da vi snek på trikken, eller løp på skinnene,
     Am 
med flasker oppi sokker sånn at ingen hørte klirrene.


[CHORUS] 

  F                    *  G 
Så kanskje vi kan dra tilbake,
     Am 
fortiden kan ikke nåes, for tiden vil gå,
  F G 
kanskje vi kan dra tilbake,
     Am 
fremtid er minnene man lever for å oppnå
  F G 
Så kanskje vi kan dra tilbake
     Am 
fremtiden kan ikke spåes, det tar tid å forstå
  F G 
Kanskje vi kan dra tilbake,
     Am 
men tiden er de beste minner akkurat nå.


[Verse] 

  F G 
Jeg synes det er litt trist, for vi var en gang bestevenner.
     Am 
men du har blitt til en jeg egentlig ikke kjenner lenger,
  F G 
det er noe som ikke stemmer, visse ting jeg aldri glemmer,
     Am 
spesielle sammenhenger, minner koster ingen penger.
  F G 
jeg minnes sandstrender, bassenger med solsenger
     Am 
man var ennå fotgjenger, og trengte ingen bompenger,
  F G 
satt opp teltstenger, og klimpret på gitar strenger,
     Am 
samlet alle fotball kort, og var skikkelig tilhenger.
  F G 
Så kom første fest, og jentene vi sprang etter,
     Am 
første gang man klina, og skrøt dagen etter.
  F G 
Husker hva hun heter, duften av håret og glossy lepper,
     Am 
og ølen som vi gjemte på ryggen i slitne sekker.


[CHORUS] 

  F G 
så kanskje vi kan dra tilbake, 
     Am 
til vår glanstid på Eikeli,
  F G 
før tiden bare fløy forbi, 
     Am 
gjør nåtid til fortid,
  F G 
før alt føltes så merkelig, 
     Am 
og ikke bare møtes i ferier og under høytid.



[CHORUS] 
  F G 
(så kanskje vi kan dra tilbake)
Fortiden kan ikke nåes, for tiden vil gå 
     Am 
(kanskje vi kan dra tilbake)
fremtid er minnene man lever for å oppnå
  F G 
(kanskje vi kan dra tilbake)
fremtiden kan ikke spåes, det tar tid å forstå
     Am 
(kanskje vi kan dra tilbake)
men tiden er de beste minner akkurat nå


  F G 
Fortiden kan ikke nåes, for tiden vil gå..
     Am 
Fremtid er minnene man lever for å oppnå...
  F G 
Fremtiden kan ikke spåes, det tar tid å forstå...
     Am 
Men tiden er de beste minner akkurat nå...

Begonia Seduction Scene Tabs – Porcupine Tree

 Porcupine Tree - Begonia Seduction Scene

Classical guitar
Capo on 2nd fret
Tune the B-string up to a C (EADGCe)
                      

e|-------0-----|-------0-----|-------0-----|-------0-----|
C|-----2---2---|-----2---2---|-----5---5---|-----5---5---|
G|---2-------2-|---2-------2-|---3-------3-|---3-------3-|
D|-0-----------|-0-----------|-0-----------|-0-----------|
A|-------------|-------------|-------------|-------------|
E|-------------|-------------|-------------|-------------| x2


e|-------0-----|-------0-----|-------0-----|-------0-----|
C|-----7---7---|-----7---7---|-----5---5---|-----5---5---|
G|---5-------5-|---5-------5-|---3-------3-|---3-------3-|
D|-0-----------|-0-----------|-0-----------|-0-----------|
A|-------------|-------------|-------------|-------------|
E|-------------|-------------|-------------|-------------| x2

e|-------0-----|-------0-----|
C|-----2---2---|-----2---2---|
G|---2-------2-|---2-------2-|
D|-0-----------|-0-----------|
A|-------------|-------------|
E|-------------|-------------| x3

e|-----0-0-0---|-----0-0-0---|
C|-------------|-------------|
G|---2-------2-|---2-------2-|
D|-0-----------|-0-----------|
A|-------------|-------------|
E|-------------|-------------|

e|-0h1-----0-1---|-------0-----|-------0-----|-------0-----|
C|---------------|-----5---5---|-----7---7---|-----7---7---|
G|-----3-------3-|---3-------3-|---5-------5-|---5-------5-|
D|-------0-------|-0-----------|-0-----------|-0-----------|
A|---------------|-------------|-------------|-------------|
E|---------------|-------------|-------------|-------------|

                                                   
e|-------0-----|-------0-----|-------0-----|
B|-----5---5---|-----5---5---|-----7---7---|
G|---3-------3-|---3-------3-|---5-------5-|
D|-0-----------|-0-----------|-0-----------|
A|-------------|-------------|-------------|
E|-------------|-------------|-------------|

Fiddle around with this chord
e|-0--|
C|-7--|
G|-5--|
D|-0--|
A|----|
E|----|

Which changes into (1:17)
e|-----------------|
C|-7---7---7---7---|
G|---5---5---5---5-|
D|-----------------|
A|-----------------|
E|-----------------|

And later on transitions to (1:37)
e|-----------------|
C|-0---0---0---0---|
G|---5---5---5---5-|
D|-----------------|
A|-----------------|
E|-----------------|

1:52   [This part is the reason of the weird tuning)
e|-----------------|
B|-0-------0-------|
G|---5---5---5---5-|
D|-----7-------7---|
A|-----------------|
E|-----------------| repeat 11 times

e|-----------------|
B|-0-------0-------|
G|---5---5---5---5-|
D|-----5-------5---|
A|-----------------|
E|-----------------|

e|-----------------|-----------------|-----------------|-----------------|
B|-0-------0-------|-0-------0-------|-0-------0-------|-0-------0-------|
G|---5---5---5---5-|---5---5---5---5-|---5---5---5---5-|---5---5---5---5-|
D|-----5-------4---|-----4-------4---|-----4-------4---|-----4-------4---|
A|-----------------|-----------------|-----------------|-----------------|
E|-----------------|-----------------|-----------------|-----------------|


Lead guitar, with lots of delay, reverb and use of tremolo-arm

Standard tuning, no capo
e|-----19-------|------22---------|-----19-------|-17------------|
B|-17-----------|-/19-----22------|-17-----20----|----17h19------|
G|--------------|-----------------|--------------|---------------|
D|--------------|-----------------|--------------|---------------|
A|--------------|-----------------|--------------|---------------|
E|--------------|-----------------|--------------|---------------|

          (tremolo)
e|-------17-------|--------19-19-19-19-19-19-19-17-17-----|
B|----------17----|---------------------------------------|
G|----------------|---------------------------------------|
D|----------------|---------------------------------------|
A|----------------|---------------------------------------|
E|----------------|---------------------------------------|
 
        tremolo-dip
e|-17-15

Reaching For You solo Tabs – Hillsongs Vsion 3

 Artist: Hillsongs
Song: Reaching For You
Part of the song: Solo

Again couldn't find any correct versions online, so I decided to tab it myself.

e|------------------------------------------------------------------------------------------|
B|-------------------------8-8-8------------------------------------------------------------|
G|-----------7s9-5-----7s9------9p7-5-7s9--p7p5-4b5b4-4-------------------------------------|
D|-----5-7-5--------------------------------------------5---5-7-----------5-----------------|
A|-5h7----------------------------------------------------7-----7p5-3-5s7---7p5-3---3-------|
E|--------------------------------------------------------------------------------5---5-3-5-|

e|------------------------------------------------------------------------------|
B|-----------------10-------10-12-13--12-12-10h12h10s8-------14--12-------------|
G|---------9-10-12----10-12----------------------------12s14-14---------------|
D|-9-10-12-----------------------------------------------------------14h12h10-|
A|------------------------------------------------------------------------------|
E|------------------------------------------------------------------------------|

e|------------------------15----------15----------------------------15----15---------------------------------|
B|------------13-15s17-17----17-17-17----17-17-17h18h17-15-13-15b17----17----17b15-13-15b17-13-15--13-15b17s0|
G|-------12-14-----------------------------------------------------------------------------------14----------|
D|-12s14-----------------------------------------------------------------------------------------------------|
A|-----------------------------------------------------------------------------------------------------------|
E|-----------------------------------------------------------------------------------------------------------|

e|---------------10-12-13-12-10-------------------------------|
B|------------10----------------13-12b13b12-12h13h12----------|
G|---------10----------------------------------------12---s12-|
D|------12----------------------------------------------------|
A|-5s12-------------------------------------------------------|
E|------------------------------------------------------------|

e|-12-12-12-12----------------------------------15----------------|
B|-12-12-12-12--15-15-15-15--13-13-13-13--15b17----15b17-13h15h13-|
G|--------------14-14-14-14--12-12-12-12--------------------------|
D|----------------------------------------------------------------|
A|----------------------------------------------------------------|
E|----------------------------------------------------------------|



************************************

| h  Hammer-on
| p  Pull-off
| b  Bend
| s  slide

************************************

Paid The Piper chords – The Jakes Vsion 2

 The Jakes - Paid The Piper
Shake My Hand EP - 2008
____________________________________________

  "Little riff"
e|--------------|
B|-3/5-3-1h3----|
G|-----------2--|
D|--------------|
A|--------------|
E|--------------|

______________________________________________________________________________

~Intro~

High string guitar noodling for about 3 and a half measures, then the "Little Riff"

 E  -  Am E  -  Am E  -  Am 
E - "Little Riff"

~Verse 1~

 E Am E Am 
  Paid the piper for your damned religion
 E Am E B 
  Lookin' up at the stars-   for signs of it
 E Am E Am 
  Bet on mercenaries-  like twin race cars
 E Am E B 
  Tell me why this corruption-  ain't all your fault

~Pre-Chorus~

 F#m B F#m 
  Waiting by the yard, you're fine
            B F#m 
Children's guns they fire by night
          B 
Bullets in the dark
        Am 
Your life, well it's hard

~Chorus~

        E B 
So you bring it up baby
         F#m A 
Just to let it down again 
         E B 
And you say the world has screwed ya
                F#m A 
Because you're buying everything
           E B 
There's a price to be in heaven
        F#m A 
Cause lord, it ain't for free
           E B 
You need divine intervention
          F#m A 
Come and sanctify me

 E  -  Am E  -  Am E  -  Am 
E - "Little Riff"

~Verse 2~

 E Am E Am 
  Wait for him in the back,  he's got your dough
 E Am E B 
  There've got to be taxes- so let the murders grow
 E Am E Am 
  What's wrong with this boy-   his neck is snapped
 E Am E B 
  You'd better run from the police 'cause they've got your ass

~Pre-Chorus~

 F#m B F#m 
  Waiting by the yard, you're fine
            B F#m 
Children's guns they fire by night
          B 
Bullets in the dark
        Am 
Your life, well it's hard

~Chorus~

        E B 
So you bring it up baby
         F#m A 
Just to let it down again 
         E B 
And you say the world has screwed ya
                F#m A 
Because you're buying everything
           E B 
There's a price to be in heaven
        F#m A 
Cause lord, it ain't for free
           E B 
You need divine intervention
          F#m A 
Come and sanctify me

 E 

~Bridge~

 E 
"Run Jack Run", You say; "Run Jack Run…"
"Run Jack Run", You say; "Run Jack Run…"
"Run Jack Run", You say; "Run Jack Run…"
"Run Jack Run", You say; "Run Jack Run…"
"Run Jack Run", You say; "Run Jack Run…"
"Run Jack Run", You say; "Run Jack Run…"
"Run Jack Run", You say; "Run Jack Run…"
You say; "Run Jack, Run Jack, Run Jaaa~ck…"
      A 
Well yeah~

~Chorus~

        E B 
So you bring it up baby
         F#m A 
Just to let it down again 
         E B 
And you say the world has screwed ya
                F#m A 
Because you're 

Before These Walls Were Blue Tabs – Wade Bowen

 [Intro]

E|------------------------------------------------------------|
B|---------1-0-------------1-0------------1-0---0-------------|
G|--------------2---------------2-------------2---0-----------|
D|-----0h2-------------0h2------------0h2---------------------|
A|--3---------------3--------------3--------------------------|
E|------------------------------------------------------------|


[Verse]

 G                                        Em
The world says you’re ready when you’re eighteen
    D                         G
And I was no exception to the rule.
G                       C
Eager to try my hand and prove to them that I was a man
       D                           G
Not an ounce of fear in anything I do.
        C                 D
Yeah, I thought I knew it all


[Chorus]

      G                    C
Turns out I didn’t have a clue
C            D          G
Before these walls were blue.


[Verse 2]

 G                                  C
I remember sitting there in that old rocker
D                           G
3am trying to get you back asleep
       G            C
When I found myself laughing at you laughing
D                                      G
Wishing the hands of time that I could cheat.
        C                   D
Yeah, I thought that I knew love


[Chorus]

      G                    C
Turns out I didn’t have a clue
C            D    C              D          G
Before these walls, before these walls were blue.


[Bridge]

Em                 D
I believe in Heaven, I believe in magic,
C                                 Am 
I believe in a life besides these walls


[Verse 3]

Now I believe
   G                              C
In dinosaurs, in toys, trains and baseball
D                             G
What you’re gonna be for Halloween
G                       C
I'll be the villain and you will be the hero
    D                                   G
And save the day the way that you saved me.
        C                D
Yeah, I thought I knew myself,


[Chorus]

      G                    C
Turns out I didn’t have a clue
C            D    C              D
Before these walls, before these walls
C            D          G
Before these walls were blue.



************************************

| h  Hammer-on

************************************

Love Someone Like Me chords – Holly Dunn

 [Intro]
 Am 

[Verse 1]
 Am 
That dancing moon,  is on the water.
                                  E7 
Do you feel inclined,  romantically?
        Am 
If you do,  I think you ought a,
      G E7 Am 
Love someone like me.


[Verse 2]
 Am        
Ain’t no place,  you should be goin’.
                            E7 
Ain’t no need,  for you to leave.
                Am  
It’s a lover’s night,  the stars are showin’,
                  G E7 Am 
You need to love someone like me.


[Chorus 1]
         C Am 
Someone else,  might try to find you,
        C E7 
But my love,  can set you free.
             Am 
And if your heart,  has got a mind to,
                G E7 Am 
You could love someone like me.


[Solo]


[Verse 3]
 Am 
Don’t need luck,  to find good lovin’,
                              E7 
And it don’t happen,  magically.
            Am                     
And baby tonight,  oh, you don’t need nothin’,
         G E7 Am 
To love someone like me.


[Chorus 2]
                C Am 
If you’ve been thinkin’,  love won’t find you,
            C E7 
Well honey wait,  right here and see.
             Am 
And if your heart,  has got a mind to, 
                G E7 Am 
You could love someone like me.


[Tag]
                G E7 Am 
You could love someone like me.
                G E7 Am 
You could love someone like me.


END

Bluest Heartache chords – Ricky Skaggs

 [Chorus]
 A D 
Bluest heartache of the year;
 E A E 
Lonesome memories I can't bare.
 A D Bm 
I still love you, but I know you don't care.
              A E A 
I've got the bluest heartache of the year.


[Verse 1]
 A E 
You looked so pretty out there on the floor,
                                           A      
Dancing with him while I watched from the door.
                         D Bm 
He held you closer than I've ever dared.
              A E A 
I've got the bluest heartache of the year.


[Chorus]
 A D 
Bluest heartache of the year;
 E A E 
Lonesome memories I can't bare.
 A D Bm 
I still love you, but I know you don't care.
              A E A 
I've got the bluest heartache of the year.


[Solo]


[Verse 2]
 A E 
If there's a prize for the worlds biggest fool,
                                       A        
I'd win for sure and then I'd start a school,
                             D Bm 
For all young lovers who've run out of tears,
              A E A 
And have the bluest heartache of the year.


[Chorus]
 A D 
Bluest heartache of the year;
 E A E 
Lonesome memories I can't bare.
 A D Bm 
I still love you, but I know you don't care.
              A E A 
I've got the bluest heartache of the year.


[Outro]
 D A E A 
And have the bluest heartache of the year.

Its A Shame chords – Bruce Springsteen

 It's A Shame
Bruce Springsteen
From the 2010 Album 'The Promise'
Partially recorded in 1977 during the 'Darkness On The Edge Of Town' sessions

[intro]

/    A     /  F#m  /  E  /    A     /   F#m  /  E  /  F#m  /

        A F#m 
Well I walk the way you want me to
          A F#m 
And I'll talk the way you want me to
          E D E 
And I've tried to do all I can just to please you

        A F#m 
Well I work hard every day for you
       A F#m 
And I brought home all my pay for you
          E D Dm E 
And I've cried my tears through the rain night and again

[chorus]
        A E A 
And oh whoa girl, it's a shame
    A Dm A 
Oh whoa girl, it's a doggone shame
     D A E A 
We worked so hard, but it's all in vain
     A E A 
Oh whoa girl, it's a shame

 A   /    F#m    /    A    /    F#m A F#m 
Now I bought your gold and diamond rings
       A F#m 
And I brought you home your pretty things
       E D E  
And I thought I'd shown all the love I had for you, yes I did


         A F#m 
But as hard as I try it all falls through
           A F#m 
Well maybe I was born to be just your fool
           E D Dm E 
Trying to satisfy your every desire, each need you require

[chorus]
      A E A 
Well oh whoa girl, it's a shame
    A Dm A 
Oh whoa girl, it's a doggone shame
    D A E A  
I worked so hard, but it's all in vain
     A E A 
Oh whoa girl, it's a shame

 A    /    F#m   /    A    /    F#m    /   E     /     D     /   Dm   /  E 

[outro]

    A E 
Oh whoa girl, it's a shame
     A Dm A 
Oh girl, it's a doggone shame
    D A E A 
We worked so hard, but it's all in vain
    A E A  
Oh whoa girl, it's a shame
    A E A 
Oh whoa girl, it's a shame
    A E A 
Oh girl, it's a doggone shame
    D A E A 
I worked so hard, but it's all in vain
    A E A 
Oh whoa, girl it's a shame

[fades out]

Theme No 1 intro Tabs – Balmorhea

 [Intro]

e|-----4-----|
B|---------5-|
G|-6---------|
D|-----------| x12
A|-----------|
D|-----------|

e|------4-----------4-----------4-----------4-----|
B|----------5-----------5-----------5-----------5-|
G|--6-----------6-----------6-----------6---------|
D|------------------------------------------------| x2
A|--7---------------------------------------------|
D|------------------------------------------------|

e|------4-----|
B|----------5-|
G|--6---------|
D|--------7---| x16
A|--7---------|
D|------------|


[Verse 1] x2

e|------4---------4---------4---------4-----|
B|----------5---------5---------5---------5-|
G|--6---------6---------6---------6---------|
D|--------7---------7---------7---------7---| x4
A|--4---------7---------7---------7---------|
D|------------------------------------------|

e|------4---------4---------4---------4-----|
B|----------5---------5---------5---------5-|
G|--6---------6---------6---------6---------|
D|--------7---------7---------7---------7---| x4
A|------------7---------7---------7---------|
D|--4---------------------------------------|


[Chorus]

e|------7---5-4-----5-4------5-4--|
B|-5------------------------------|
G|--------------------------------|
D|--------7---6---7---6----7------| x2
A|-7----------------------------5-|
D|--------------------------------|


[Verse 2] x3

e|------4-----------4-----------4-----------4-----|
B|----------5-----------5-----------5-----------5-|
G|--6-----------6-----------6-----------6---------|
D|--------7-----------7-----------7-----------7---| x4
A|--4-----------7-----------7-----------7---------|
D|------------------------------------------------|

e|--5---4-------5---4-------5---4-------5---4-----|
B|----------5-----------5-----------5-----------5-|
G|--------------0-----------0-----------0---------|
D|--------7-----------7-----------7-----------7---| x4
A|------------------------------------------------|
D|--4---------------------------------------------|


[Chorus] x2

e|------7---5-4-----5-4------5-4--|
B|-5------------------------------|
G|--------------------------------|
D|--------7---6---7---6----7------|
A|-7----------------------------5-|
D|--------------------------------|