Painters Of The Tempest Part Ii Triptych Lux intro Tabs – Ne Obliviscaris

 -------------------------------------------------------------------------------
Painters of the Tempest Pt. 2: Triptych Lux (Intro) – Ne Obliviscaris
-------------------------------------------------------------------------------
: Jeff Cameron
Email: jcameron99
Date: Dec. 1, 2014

Tuning: EADGBe

This song is massive, but I am pretty sure I got the intro / main riff down. 

Hopefully this will help you all get started, enjoy!


e|-------------------------------------------------------------------|
B|-------------------------------------------------------------------|
G|--5---------------5---------5---------------------------5-5-5------|
D|--4---------------4---------4---------------------------4-4-4------|
A|--3---------------3---------3---------------------------3-3-3------|
E|--4---4-4-4-4-4-4-4---4-4-4-4---4-4-4-4-4-4-4-4-4-4-4-4-4-4-4------|
        • • • • • •     • • •     • • • • • • • • • • • •           

e|------------------------------------------------0--------|
B|----------------------------------------------0----------|
G|--8---------------8-9-9---9-------------1---------8^-----|
D|--6---------------6-6-6-6-6-6-2-----------2/6------------|
A|--4---4-4-4-4-4-4-4-4-4-4-----0---0-0-0------------------|
E|---------------------------------------------------------|
        • • • • • •                 • • •                   

e|---------------------------------------------------------|
B|---------------------------------------------------------|
G|--8---------------8-9-9---9-------4-4-4-4-----2-2-2-2----|
D|--6---------------6-6-6---6-6---2-2-2-2-2---4-4-4-4-4----|
A|--4---4-4-4-4-4-4-4-4-4---4---0---0-0-0-0-0---0-0-0-0----|
E|---------------------------------------------------------|
        • • • • • •             •           •               


| /  slide up
| \  slide down
| h  hammer-on
| p  pull-off
| ~  vibrato
| +  harmonic
| x  Mute note
| ^  Bend note up
===============================================================================
(Visited 1 times, 1 visits today)

Comments are closed.