Pawn Shop Blues Tabs by Lana Del Rey V2

 -------------------------------------------------------------------------------
                             PAWN SHOP BLUES - Lana Del Rey
-------------------------------------------------------------------------------
: michsem
 michellesesmc@hotmail.com


Tuning: standard

    E A D G B E       E A D G B E       E A D G B E        E A D G B E       E A D G B E
Am  x 0 2 2 1 0    C  0 3 2 0 1 0    D  x 0 0 2 3 2    Em  0 2 2 0 0 0    G  3 2 0 0 3 3


                                                           Well,
e|------2------2-0-----0-----0----------2------2-0-----0-----0------|
B|------------------------------------------------------------------|
G|------------------------------------------------------------------|
D|------------------------------------------------------------------|
A|------------------------------------------------------------------|
E|---3-----3--------3-----3----------3-----3--------3-----3---------|

      
     I didn't know it would come to this but
e|--------2------2-------0------0--------|
B|---------------------------------------|
G|---------------------------------------|  
D|---------------------------------------|
A|---------------------------------------|
E|---3-------3-------3------3------------|


       That's what happens when you're on your own. And you're
e|-------2------2-------0------0---------|
B|---------------------------------------|
G|---------------------------------------|  
D|---------------------------------------|
A|---------------------------------------|
E|---3-------3------3------3-------------|


    alright with letting nice things go.                           Well, I
e|----------------------------------------3-------3-2-------2-------2-0-----|
B|-------1-------1--------1-------1-----------------------------------------|
G|--------------------------------------------------------------------------|
D|--------------------------------------------------------------------------|
A|---0-------0--------3-------3---------------------------------------------|
E|------------------------------------3-------3---------3-------3-----------|

     
     pawned the earrings that you gave me
e|-------2-------2--------0-------0--------------------|
B|-------0-------0--------0-------0--------------------|
G|-------0-------0--------0-------0--------------------|
D|-------0-------0--------0-------0--------------------|
A|-------0-------0--------0-------0--------------------|
E|---3---3---3---3----3---3---3---3--------------------|


     Gold and made of flowers dangling and I
e|-------2-------2--------0--------0-------------------|
B|-------0-------0--------0--------0-------------------|
G|-------0-------0--------0--------0-------------------|
D|-------0-------0--------0--------0-------------------|
A|-------0-------0--------0--------0-------------------|
E|---3---3---3---3----3---3----3---3-------------------|


   almost cried as I sold them all
        Am      Am        C       C
e|-------0-------0--------0-------0--------------------|
B|-------1-------1--------1-------1--------------------|
G|-------2-------2--------0-------0--------------------|
D|-------2-------2--------2-------2--------------------|
A|---0---0---0---0----3---3---3---3--------------------|
E|-------x-------x--------0-------0--------------------|

  
                                 And
               *                 *
e|-----3------3-2--------2------2-0--------------------|  *it sounds better here if
B|-----0------0-0--------0------0-0--------------------|    you strum down,up 
G|-----0------0-0--------0------0-0--------------------|
D|-----0------0-0--------0------0-0--------------------|
A|-----0------0-0--------0------0-0--------------------|
E|---3------3----------3------3------------------------|


I don't mind living on bread and  oranges no, no                  But I
                                          Em      Em
e|-------2-------2--------0-------0--------0-------0--------2-
(Visited 1 times, 26 visits today)

Comments are closed.