Permanent Song Name Tabs by Letters To The Living

 Key:*-palm mute
    p-pulloff
    h-hammeron
    s-slide
    ~-let ring
    1-Guitar 1
    2-Guitar 2
    B-Both guitars

0:00-0:11
C#|-----------------------------------|
G#|-----------------------------------|
E |-----------------------------------|
B |-----------------------------------|
F#|-------8---------------------------|
B |-000-0---0-0-0-000-000-------------|B
    *** *   * * * *** ***
C#|-----------------------------------|
G#|-----------------------------------|
E |-----------------------------------|
B |-----------------------------------|
F#|-------10--------------------------|
B |-888-8----8-8-8-101010-101010------|b
    *** *    * * * * * *  * * *
C#|-----------------------------------|
G#|-----------------------------------|
E |-----------------------------------|
B |-----------------------------------|
F#|-------8---------------------------|
B |-000-0---0-0-0-000-000-------------|B
    *** *   * * * *** ***
C#|-----------------------------------|
G#|-----------------------------------|
E |-----------------------------------|
B |-----------------------------------|
F#|-------10--------------------------|
B |-888-8----8-8-8-777-777----(slide)-|B
    *** *    * * * *** ***

0:12-0:22
C#|-----------------------------------|
G#|-----------------------------------|
E |-----------------------------------|
B |-----------------------------------|
F#|-------8-------------8-------------|
B |-000-0---0-0-0-000-0---0-0-0-------|1
    *** *   * * * *** *   * * *
C#|-----------------------------------|
G#|-----------------------------------|
E |-----------------------------------|
B |-----------------------------------|
F#|-------12-------------12-----------|
B |-000-0----0-0-0-000-0----0-0-0-----|2
    *** *    * * * *** *    * * *
C#|-----------------------------------|
G#|-----------------------------------|
E |-----------------------------------|
B |-----------------------------------|
F#|-------8-------------8-------------|
B |-888-8---8-8-8-777-7---7-7-7-------|1
    *** *   * * * *** *   * * *
C#|-----------------------------------|
G#|-----------------------------------|
E |-----------------------------------|
B |-----------------------------------|
F#|-------12-------------10-----------|
B |-888-8----8-8-8-777-7----7-7-7-----|2
    *** *    * * * *** *    * * *


0:23-0:33
C#|-----------------------------------|
G#|-----------------------------------|
E |-----------------------------------|
B |-----------------------------------|
F#|----------7----7----------7----7---|
B |-00000000---00---00000000---00-----|1
    ********   **   ********   **
C#|-----------------------------------|
G#|-----------------------------------|
E |-----------------------------------|
B |-----------------------------------|
F#|----------10----10---------10----10|
B |-00000000----00----00000000----00--|2
    ********    **    ********    **
C#|-----------------------------------|
G#|-----------------------------------|
E |-----------------------------------|
B |-----------------------------------|
F#|----------7----7----------7----5---|
B |-88888888---88---77777777---77-----|1
    ********   **   ********   **
C#|-----------------------------------|
G#|-----------------------------------|
E |-----------------------------------|
B |-----------------------------------|
F#|----------10--10----------10----8--|
B |-88888888---88---77777777---77-----|2
    ********   **   ********   **


0:33-0:38
C#|-----------------------------------|
G#|-----------------------------------|
E |-----------------------------------|
B |-----3------3------3----7-5-3-5--0~|
F#|-------5------5------5-----------0~|
B |-0-0-----0-0----0-0--------------0~|B
    * *     * *    * *

0:39-1:01 (chorus x2)
C#|-----------------------------------|
G#|-----------------------------------|
E |-----------------------------------|
B |-5557775557775555-888777888
(Visited 1 times, 1 visits today)

Comments are closed.