Pretend To Be Tabs by Linkin Park

 Intro/Verse/Pre-Chorus/Post-Chorus/Outro

e|-----------------|
B|---6-------------|
G|---7----|    x16-|
D|-----------------|
A|-----------------|
E|-----------------|

e|-----------------|
B|---5-------------|
G|---7----|    x16-|
D|-----------------|
A|-----------------|
E|-----------------|

Chorus

e|------------------------------------------------------------------|
B|-10-10-10-10------------------------------------------------------|
G|-----------------9-9-9-10-10-10-10-10-10-10-10-10-----------------|
D|------------------------------------------------------------------|
A|------------------------------------------------------------------|
E|------------------------------------------------------------------|

e|----------------------------------------------------------------------|
B|-10-10-10-10----------------------------------------------------------|
G|-----------------9-9-9-10-10-10-10-10-10-10-10-9-9-9-9-9-12-12-12-12--|
D|----------------------------------------------------------------------|
A|----------------------------------------------------------------------|
E|----------------------------------------------------------------------|
(Visited 1 times, 1 visits today)

Comments are closed.