Promiscuous Daughter Tabs by Cky V2

 Song:Promiscuous Daughter
Volume 1
Artist:CKY
Genre:Alternative Metal
Year:1999
Tuning:Whole-Step Down

Verse 1 Pt.1 x2 (Distortion)
D---------------------|
A---------------------|
F---------------------|
C-22222222--55555555--|
G-22222222--55555555--|
D-00000000--33333333--|

Verse 1 Pt.2 x2 (Distortion)
D-------------|
A-------------|
F-------------|
C-22--55--55--|
G-22--55--55--|
D-00--33--33--|

Verse 1 Pt.3 x4 (Distortion)
D-----------------------------|
A-----------------------------|
F-----------------------------|
C-99999999--1212121212121212--|
G-77777777---9-9-9-9-9-9-9-9--|
D-----------------------------|

Verse 1 Pt.4 x3 (Distortion)
D---------------------|
A---------------------|
F---------------------|
C-22222222--55555555--|
G-22222222--55555555--|
D-00000000--33333333--|

Pre-Bridge x1 (Distortion)
D---------------------------|
A---------------------------|
F---------------------------|
C-22222222--5---------------|
G-22222222--5---------------|
D-00000000--3--2~~~~~~~~~~--|

Bridge Pt.1 x3 (Clean)
D-----------------------------------|
A-----------------------------------|
F------4-4--2-2--0-2-0--2/4-0--2----|
C-0-2----------------------------0--|
G-----------------------------------|
D-----------------------------------|

Bridge Pt.2 x1 (Clean)
D---------------------------|
A---------------------------|
F-----4-4--2-2--7-7-7/9~~~--|
C-0-2-----------------------|
G---------------------------|
D---------------------------|

Bridge Pt.3 x1 (Distortion)
D-------------------------------|
A-------------------------------|
F-------------------------------|
C-------------------------------|
G----/7-4-----------------------|
D-0-------7--0-3-3/5--3/5--0-0--|

D-----------------------------|
A-----------------------------|
F-----------------------------|
C-----------------------------|
G-/7-4------------------------|
D------7--0-3-3/5--3/5--0~~~--|

D----------------------------|
A----------------------------|
F----------------------------|
C----------------------------|
G-/7-4-----------------------|
D------7--0-3-3/5--3/5--0-0--|

D----------------------------|
A----------------------------|
F----------------------------|
C----------------------------|
G-/7-4-----------------------|
D------7--0-3-3/5--3/5--0-0--|

D----------------------------|
A----------------------------|
F----------------------------|
C----------------------------|
G-/7-4-----------------------|
D------7--0-3-3/5--3/5--0-0--|

D-----------------------------|
A-----------------------------|
F-----------------------------|
C-----------------------------|
G-/7-4------------------------|
D------7--0-3-3/5--3/5--0~~~--|

D----------------------------|
A----------------------------|
F----------------------------|
C----------------------------|
G-/7-4-----------------------|
D------7--0-3-3/5--3/5--0-0--|

D--------------------------|
A--------------------------|
F--------------------------|
C--------------------------|
G-/7-4---------------------|
D------7--0-3-3/5--3/5--0--|

Interlude 1 Pt.1 x2 (Distortion)
D------------------------------------|
A------------------------------------|
F------------------------------------|
C-X-X-X-X-X-X-X-X-X-X--1212-XX-1212--|
G-X-X-X-X-X-X-X-X-X-X---9-9-XX--9-9--|
D------------------------------------|

Interlude 1 Pt.2 x6 (Distortion)
D-----------------------------|
A-----------------------------|
F-----------------------------|
C-99999999--1212121212121212--|
G-77777777---9-9-9-9-9-9-9-9--|
D-----------------------------|

Outro 1 Pt.1 x4 (Distortion)
D---------------------|
A---------------------|
F---------------------|
C-2-2-2-22--5-5-5-55--|
G-2-2-2-22--5-5-5-55--|
D-0-0-0-00--3-3-3-33--|

Outro 1 Pt.2 x1 (Distortion)
D-------------------------------|
A-------------------------------|
F-------------------------------|
C-------------------------------|
(Visited 1 times, 1 visits today)

Comments are closed.