Refusal Tabs – Strike Anywhere Vsion 2

 Lead guitar is first part attached, rhythm guitar is second part. One part means both guitars play the same
thing. Lyrics on bottom of the tab for ease of mind.

Intro: e|--------------------------------------5555---------------------|
       B|-3~-035~-357-7777777777777777\33333333----55557777777777777777-|
       G|---------------------------------------------------------------| X2
       D|---------------------------------------------------------------|
       A|---------------------------------------------------------------|
       E|---------------------------------------------------------------|
       |
       e|---------------------------------------------------------------|
       B|---------------------------------------------------------------|
       G|--------------------------------------7777---------------------| X2
       D|------------------------------55555555777777779999999999999999-|
       A|------------------------------55555555555577779999999999999999-|
       E|------------------------------33333333----55557777777777777777-|

Verse: e|---------------------------------------------------------------------|
       B|---------------------------------------------------------------------|
       G|--------------------7777777777777777--------7777---------------------| X2
       D|-9~-9-999-999-999-99777777777777777755555555777777779999999999999999-|
       A|-9~-9-999-999-999-99555555555555555555555555555577779999999999999999-|
       E|-7~-7-777-777-777-77----------------33333333----55557777777777777777-|

Chorus: e|-5-55555h7p5p3--2-22222h3p2p0-------------------------------------|
        B|--------------------------------3-333333-5-555555-7-7777777777777-|
        G|------------------------------------------------------------------| X2
        D|------------------------------------------------------------------|
        A|------------------------------------------------------------------|
        E|------------------------------------------------------------------|
        |
        e|------------------------------------------------------------------|
        B|------------------------------------------------------------------|
        G|-7-777-777-777-776-666-666-666-66--------7-77---------------------| X2
        D|-7-777-777-777-776-666-666-666-665-555-557-777-779-999-999-999-99-|
        A|-5-555-555-555-554-444-444-444-445-555-555-557-779-999-999-999-99-|
        E|---------------------------------3-333-33----5-557-777-777-777-77-|

Pre-Verse: e|----------------------------------------------5555---------------------|
           B|-3-3333-035-5555-357-7777777777777777\33333333----55557777777777777777-|
           G|-----------------------------------------------------------------------| X2
           D|-----------------------------------------------------------------------|
           A|-----------------------------------------------------------------------|
           E|-----------------------------------------------------------------------|
           |
           e|-----------------------------------------------------------------------|
           B|-----------------------------------------------------------------------|
           G|----------6-6666--67-7777777777777777---------7777---------------------| X2
           D|-9-9999-796-6666-967-7777777777777777-55555555777777779999999999999999-|
           A|-9-9999-794-4444-945-5555555555555555-55555555555577779999999999999999-|
           E|-7-7777-57-------7--------------------33333333----55557777777777777777-|

Verse: e|---------------------------------------------------------------------|
       B|---------------------------------------------------------------------|
       G|--------------------7777777777777777--------7777---------------------|
       D|-9~-9-999-999-999-99777777777777777755555555777777779999999999999999-|
       A|-9~-9-999-999-999-99555555555555555555555555555577779999999999999999-|
       E|-7~-7-777-777-777-77--------

Comments are closed.