Remember Everything Acoustic Tabs by Five Finger Death Punch

 Author/Artist: Five Finger Death Punch
Title: Remember Everything
       Live Acoustic
: Robert Brown
Email: bahburt

Tuning: (from low to high)  A E A D F# B

This is the acoustic version they play live.
Transcribed to the best of my abilities. Hope you enjoy it!

    Intro

-|--------------------|---------------------|-----------------|--------------|
-|--------------------|---------------------|-----------------|--------------|
-|--------------------|---------------------|-----------------|--------------|
-|--------11-9--------|--------11-9---------|-----4-7-6-----4-|--------------|
-|---9-12------11---9-|---9-12------11-12-9-|---4-------7-----|--------------|
-|-0--------------0---|-0-------------------|-4-----------4---|--------------|


-|-------------------|--------------------|---------------------|------------|
-|-------------------|--------------------|---------------------|------------|
-|-------------------|--------------------|---------------------|------------|
-|-----4-7-6-------7-|--------11-9--------|--------11-9---------|------------|
-|---4-------7-------|---9-12------11---9-|---9-12------11-12-9-|------------|
-|-4-----------4\7---|-0--------------0---|-0-------------------|------------|


-|-------------------0------------------|------------------------------------|
-|-------------------0------------------|------------------------------------|
-|-------------------4------------------|------------------------------------|
-|-----4-7-6---4-----4------------------|------------------------------------|
-|---4-------7------------4/------------|------------------------------------|
-|-4-------------4--------4/------------|------------------------------------|
    Verse

-|--------------------|---------------------|-----------------|--------------|
-|--------------------|---------------------|-----------------|--------------|
-|--------------------|---------------------|-----------------|--------------|
-|--------11-9--------|--------11-9---------|-----4-7-6-----4-|--------------|
-|---9-12------11---9-|---9-12------11-12-9-|---4-------7-----|--------------|
-|-0--------------0---|-0-------------------|-4-----------4---|--------------|


-|-------------------|--------------------|---------------------|------------|
-|-------------------|--------------------|---------------------|------------|
-|-------------------|--------------------|---------------------|------------|
-|-----4-7-6-------7-|--------11-9--------|--------11-9---------|------------|
-|---4-------7-------|---9-12------11---9-|---9-12------11-12-9-|------------|
-|-4-----------4\7---|-0--------------0---|-0-------------------|------------|


-|-----------------|----------------------|--------------------|-------------|
-|-----------------|----------------------|--------------------|-------------|
-|-----------------|----------------------|--------------------|-------------|
-|-----4-7-6-----4-|-------7-11-9---------|-12---11---9--------|-------------|
-|---4-------7-----|-----7--------11-12-9-|---------------12---|-------------|
-|-4-----------4---|-4\7------------------|----9----9---9----9-|-------------|


-|-----------------|-----------------|-----------------|---------------------|
-|-----------------|-------0---------|-------5-------9-|---------------------|
-|-6---6---4-------|-----2---2---2---|-----6-------9---|---------------------|
-|-------------7---|---2-----------2-|---6-------9-----|---------------------|
-|-----------------|-0---------0-----|-4-------7-------|---------------------|
-|---4---4---4---4-|-----------------|-----------------|---------------------|
    Chorus

-|---------------|---------------|-------------------------------|-----------|
-|-------0-------|---------------|-------3-------------7-------9-|-----------|
-|-----2---2-----|-------1-------|-----4---4---------7-------9---|-----------|
-|---2---------2-|-----2---2---
(Visited 1 times, 3 visits today)

Comments are closed.