Revival Tabs by Before Their Eyes

 : Joshua Garcia (joshuag523@aol.com)

Tabs for the song: Revival by Before Their Eyes
Please rate and let me know if you have any corrections. Thank you.


Tuning: Drop B (B F# B E G# C#)


Intro
Guitar 1:
C#||---------------------------------------------|----------------------------------------|
G#||---------------------------------------------|----------------------------------------|
E ||---------------------------------------------|----------------------------------------|
B ||--12-----------------------------------------|--12------------------------------------|
F#||---------------------------------------------|---------------------------------12\0~--|
B ||-----13-12-0-12-13-0-15-0-13-0-0-12-0-10-12--|-----13-12-0-12-13-0-15-0-13-0-0-12\1~--|


C#||---------------------------------------------|-------------------------|
G#||---------------------------------------------|-------------------------|
E ||---------------------------------------------|-------------------------|
B ||--12-----------------------------------------|--12---------------------|
F#||---------------------------------------------|-------------------------|
B ||-----13-12-0-12-13-0-15-0-13-0-0-12-0-10-12--|-----13-12-0-12-13-0-15--|



Pre-Verse
Guitar 1/2:
C#||---------------------------------------------|----------------------------------------|
G#||---------------------------------------------|----------------------------------------|
E ||---------------------------------------------|----------------------------------------|
B ||--12-----------------------------------------|--12------------------------------------|
F#||---------------------------------------------|---------------------------------12\0~--|
B ||-----13-12-0-12-13-0-15-0-13-0-0-12-0-10-12--|-----13-12-0-12-13-0-15-0-13-0-0-12\1~--|


C#||---------------------------------------------|----------------------------------------|
G#||---------------------------------------------|----------------------------------------|
E ||---------------------------------------------|----------------------------------------|
B ||--12-----------------------------------------|--12------------------------------------|
F#||---------------------------------------------|------------------------00000~--00000~--|
B ||-----13-12-0-12-13-0-15-0-13-0-0-12-0-10-12--|-----13-12-0-12-13-0~---11111~--00000~--|
                                                                          ....    ....



Verse
Guitar 1/2:
C#||-------------------------------------------------------------------|
G#||-------------------------------------------------------------------|
E ||-------------------------------------------------------------------|
B ||--------------------------------------------12---------------------|
F#||--000-0------------------------------------------------------------|
B ||--000-0-0-0---0~---0-0-00---0~---0-0--0--0-----13-12-0-10-0-10-12--|
      ... .            .             .


C#||-----------------------------------------------------------------|
G#||-----------------------------------------------------------------|
E ||-----------------------------------------------------------------|
B ||--------------------------------------------12-------------------| x2
F#||--000-0-------------------------------------------------0-0-0-0--|
B ||--000-0-0-0---1~---0-0-00---0~---0-0--0--0-----13-12-0--1-1-1-1--|
      ... .            .             .                      . . . .



Chorus
Guitar 1/2:
C#||--------------------------------------------------------------------|
G#||--------------------------------------------------------------------|
E ||--------------------------------------------------------------------|
B ||--------------------------------------------------------------------|
F#||--------------------------------------------------------------------|
B ||--0000000000000000777777777777555588888888888888881111111111113333--|


(Visited 1 times, 1 visits today)

Comments are closed.