Right Down The Line solo Tabs by Gerry Rafferty

 -------------------------------------------------------------------------------
                                            Right Down the Line-Gerry Rafferty
-------------------------------------------------------------------------------
Tabbed by: Matthew Belson (mbelson@villanova.edu)

Tuning: Standard

The other tabs for the chords to this song are perfect, but I haven't seen any
tabs for the solos in this song, so here you go:

Intro/Solo (They're Exactly the Same)
e|---------------------------------------------------------------------------|
B|-------------17/18-20b22---20~------20b22r20-18-20b22r20-18-20p18----18~---|
G|-------17-19------------------------------------------------------19-------|
D|-17/19---------------------------------------------------------------------|
A|---------------------------------------------------------------------------|
E|---------------------------------------------------------------------------|

e|------------------------20-------------------------------------------------|
B|-------------17/18-20b22--22r20~----20b22r20-18-20b22r20-18-20p18----18~---|
G|-------17-19---------------------------------------------------------------|
D|-17/19---------------------------------------------------------------------|
A|---------------------------------------------------------------------------|
E|---------------------------------------------------------------------------|

e|-20b22r20-17-20b22-20-17---------------------------------------------------|
B|-------------------------20b22r20b22r20~-20b22r20-18-20b22r20-18-20p18--18~|
G|----------------------------------------------------------------------19---|
D|---------------------------------------------------------------------------|
A|---------------------------------------------------------------------------|
E|---------------------------------------------------------------------------|

e|------------------------------------------------(20)-----------------------|
B|--------------------------------------------20b22--22r20-18--18~-20b22~----|
G|-19b21r19-17-19b21r19-17-16\14-----------------------------19--------------|
D|-------------------------------17-17~--------------------------------------|
A|---------------------------------------------------------------------------|
E|---------------------------------------------------------------------------|

Note: The (20) is actually a fourth (5 frets) higher on the recording, it's 
just not playable on most guitars without a pedal or an excruciating bend.

e|---------------------------------------------------------------------------|
B|---------------------------------------------------------------------------|
G|-10-12b14~--12b14-12-10-9h10p9---------------------------------------------|
D|-------------------------------12~-----------------------------------------|
A|---------------------------------------------------------------------------|
E|---------------------------------------------------------------------------|

 Fill after first verse
e|---------------------------------------------------------------------------|
B|---------------------------------------------------------------------------|
G|--17b19-17-14--------------------------------------------------------------|
D|--------------17b19r17-15\14-14h15p14--------------------------------------|
A|--------------------------------------17~----------------------------------|
E|---------------------------------------------------------------------------|

Slide Before Second Bridge
e|---------------------------------------------------------------------------|
B|-13---13\10----------------------------------------------------------------|
G|-14---14\11----------------------------------------------------------------|
D|---------------------------------------------------------------------------|
A|---------------------------------------------------------------------------|
E|---
(Visited 1 times, 12 visits today)

Comments are closed.