Right Here In July Tabs by Al Bairre

 So, this is my first tab guys, although I think this is right, if you have any
corrections to do, please send them to me: levi-ag@hotmail.com

Al Bairre is a relatively new band, this is a cool song and it's definitely fun to play.

INTRO:


e---------------------------------------|
B---------------------------------------|
G-------------------------9-------------|
D----11-----9-11-----9-11---11--11t-9---|
A--9-----12-------12--------------------|
E---------------------------------------|

t=treble

The first guitar plays this riff four times.
The fifth time the second guitar plays Fm




E---9---9------9---9---9---|
B---10--10-----10--10--10--|
G---11--11-----11--11--11--|
D---11--11-----11--11--11--|
A---9---9------9---9---9---|
E---9---9------9---9---9---|


The chorus goes without guitars...


Right after "...christmas right in July..."

It's Fm again, listen to the song and you'll get the strumming right


Ok, so the bridge part goes something like this, I think:


e---------------------------|---------------------------|
B---------------------------|---------------------------|
G---------------------------|---------------------------|
D--7-------7-9-9t-7-----7---|--7-------7-9-9t-----------|
A----9-7-9----------9-7-----|----9-7-9--------9-7-12t---|
E---------------------------|---------------------------|



It ends with the same riff as in the intro, but the second time it ends sooner:

e---------------------------------------|--------------------------------|
B---------------------------------------|--------------------------------|
G-------------------------9-------------|--------------------------9-----|
D----11-----9-11-----9-11---11--11t-9---|----11-----9-11-----9-11----11--|
A--9-----12-------12--------------------|--9-----12-------12-------------|
E---------------------------------------|--------------------------------|




ENJOY!


I hope this is right, comments or corrections to levi-ag@hotmail.com




You can check out other Al Bairre songs here:



http://www.last.fm/music/Al+Bairre
(Visited 1 times, 1 visits today)

Comments are closed.