Running Tabs by Milky Chance

 'Milky Chance - Running' 

Hey there this is my first tab and a really small one too. I just wanted to share 
it here because there's no other tab of 'Running' ;)
Due to my bad english I'm not able to write the lyrics down here, I simply cant't 
understand what he sings :D

STANDART TUNING - NO CAPO

Chords used:

     B7  Em  C   G
e|---2---0---0---3---|
H|---0---0---1---0---|
G|---2---0---0---0---|  
D|---1---2---2---0---|
A|---2---2---3---2---|
E|---X---0---X---3---|

This is how you pick it the whole the time except during the chorus, you just 
strum the chords along then ;)

  B7      Em      C       G
e|--------------------------------|
H|--------------------------------|
G|--------------------------------|    
D|--1-0-1-2-----2---2---------0---|
A|2-----------2---3---3-2---2---2-|
E|----------0-------------3-------|

author: JasonNero

Comments are closed.