Santas Beard chords – The Beach Boys

 ---------------------------------------------------------------------------
                     The Beach Boys - Santa's Beard
---------------------------------------------------------------------------
                        : gutturalguitar
                        Tuning: standard

                        Santa's Beard (1964)
                        (Brian Wilson/Mike Love)

                        From: "The Beach Boys' Christmas Album"
---------------------------------------------------------------------------

 G# 

I wanna meet Santa Claus, the real real Santa
(meet Santa)
(the real santa)

 G#aug 

I wanna meet Santa Claus, the real real Santa
(meet Santa)
(the real santa)

 C# 

I wanna see Santa Claus, the real real Santa
(meet Santa)
(the real santa)

    A#m D# 

he wants to meet ol' Santa Claus

 G# 

I took my brother to the department store

              A#m F# 

he wanted to show Santa his Christmas list

 G#      

he stood in line and he shook like a leaf

 A#m D# 

he's only five and a half goin' on six

 G# 

he said, "Is that really Santa Claus, really really Santa?"
(that Santa)
(the real Santa)

 G#aug 

"Is that really Santa Claus, really really Santa?"
(that Santa)
(I hope he don't pull Santa's beard)

 C# 

"Is that really Santa Claus, really really Santa?"
(that Santa)
(the real Santa)

 A#m D# 

hope he thinks that's Santa Claus

 G# 

I picked him up and put him on Santa's lap

             A#m F# 

and then he pulled the pillow out of his shirt

 G# 

he yanked the beard right on off of his chin

            A#m D# 

and in his eyes I could see he was hurt

 G# 

he said, "You're not really Santa Claus, you're really not Santa."
(not Santa)
(the real Santa)

 G#aug 

"You're not really Santa Claus, you're really not Santa."
(not Santa)
(he shouldn'ta pulled Santa's beard)

 C# 

"You're not Santa Claus, you're really not Santa."
(not Santa)
(the real Santa)

 A#m D# 

he's just helpin' Santa Claus

|  G#  | |  G#aug  |  C#  |  A#m  |  D#  |

guitar solo: (palm muted)
e|----------------------------|   
B|1-1-1---1-1-1---1-4-----1---|   
G|------1-------1-----1-3---3-|   
D|----------------------------|  
A|----------------------------|   
E|----------------------------|   

e|-------------------------------------|
B|---1-1-1---1-1-1---1-4-----1---------|
G|-1-------1-------1-----1-3---3-3-3-3-|
D|-------------------------------------|
A|-------------------------------------|
E|-------------------------------------|

 G# 

he's just helpin' Santa Claus, the real real Santa
(helpin' Santa)
(the real Santa)

 G#aug 

he's helpin' Santa Claus, the real real Santa
(helpin' Santa)
(the real Santa)

 C# 

he's just helpin' Santa Claus, the real real Santa
(helpin' Santa)
(the real Santa)

 A#m D# 

he's just helpin' Santa Claus

 G# 

he's just helpin' Santa Claus, the real real Santa
(helpin' Santa)
(the real Santa)

 G#aug 

he's helpin' Santa Claus, the real real Santa
(helpin' Santa)
(the real Santa)

 C# 

he's just helpin' Santa Claus, the real real Santa
(helpin' Santa)
(the real Santa)

 A#m D# 

he's just helpin' Santa Claus
(Visited 1 times, 1 visits today)

Comments are closed.