Shine On You Crazy Diamond Parts 5-9 solo Tabs by Pink Floyd

 This is the first solo to Shine On You Crazy Diamond. It uses a slide.

/= slide

e|---------------------------------------------------------------------------|
B|---------------------------------------------------------------------------|
G|----------12-----12/10----------12---------15/14------9----10/12-----3/2-0-|
D|---/12----------------10/12------------------------------------------------|
A|---------------------------------------------------------------------------|
E|---------------------------------------------------------------------------|

e|---------------------------------------------------------------------------|
B|------------------------------------------------------/15/----/13/---------|
G|------------12--------12/10-------------12---------------------------------|
D|----10/12---------------------10/12----------------------------------------|
A|---------------------------------------------------------------------------|
E|---------------------------------------------------------------------------|

e|---------------------------------------------------------------------------|
B|---11/10----------------------------------/17/-----------------------------|
G|----------------/12------0/12----------------------------------------------|
D|---------------------------------------------------------------------------|
A|---------------------------------------------------------------------------|
E|---------------------------------------------------------------------------|

e|---------------------------------------------------------------------------|
B|---------------------------------------------------------------------------|
G|----12--------7/5----3/7-----------/10--/9----------9/7--------------------|
D|----------------------------------------------------------7/8----10/12-----|
A|---------------------------------------------------------------------------|
E|---------------------------------------------------------------------------|

e|--------------------------------------------------------------15/----------|
B|---------------------------------------------------------/15---------------|
G|---12---12/10------------12---------15/14-----10/12---------------6/12-----|
D|----------------10/12------------------------------------------------------|
A|---------------------------------------------------------------------------|
E|---------------------------------------------------------------------------|

e|--------------------------------------------3------------------------------|
B|--11/10/8/6-----------------------3---/3-----------------------------------|
G|-------------7/5/3/2---------2/3-----------------3/0-----------------------|
D|-----------------------3/5----------------------------5/3----3/5/3---------|
A|--------------------------------------------------------------------5------|
E|---------------------------------------------------------------------------|

e|--------15----15/13----------15---------15/18----15------15-----15/13------|
B|--/15-------------------/15------/15----------------/15--------------------|
G|---------------------------------------------------------------------------|
D|---------------------------------------------------------------------------|
A|---------------------------------------------------------------------------|
E|---------------------------------------------------------------------------|

e|---------13/15-------------15----------------------------------------------|
B|---15------------13/15-----------------------------------------------------|
G|---------------------------------------------------------------------------|
D|---------------------------------------------------------------------------|
A|---------------------------------------------------------------------------|
E|---------------------------------------------------------------------------|

e|---/22----/20------18--17-----15/13/15---15/----
(Visited 1 times, 1 visits today)

Comments are closed.