Starry Eyed Acoustic intro Tabs – Ellie Goulding Vsion 2

 capo 1
Little noise session version

Awesome version of a very nice song :-)
listen to the song to hear which notes should be the loudest, since some are subtle and some are powerful.

watch: https://www.youtube.com/watch?v=EC_LtEuqF_E

the second line has some high notes from a synthesizer. Therefor the first Em and Em/G havebeen raised,
as to make the D string the bass-string.

tab and chords are relative to capo 1.

enjoy:

  Em                D                 Am7               Em/G
e|-----------------|--------2--------|-----------------|-----------------|
B|------0----------|------3----------|------1----------|------0---0------|
G|----------0------|----2------------|-----------------|-----------------|
D|-----------------|0-----------0-0--|--2-------2------|-----------------|
A|--2--------------|-----------------|0---0---------0--|--2--------------|
E|0----------------|-----------------|-----------------|3---3------------|

  Em                D                 Am7               Em/G
e|3----------------|--------2--------|-----------------|-----------------|
B|5-----0---0------|3-----3----------|1-----1----------|6----------------|
G|4----------------|2---2------------|0----------------|5----------------|
D|-----------------|------------0-0--|----------2------|6----------------|
A|-----------------|-----------------|--------------0--|-----------------|
E|-----------------|-----------------|-----------------|-----------------|




************************************

| /   slide up
| \   slide down
| h   hammer-on
| p   pull-off
| ~   vibrato
| +   harmonic
| x   Mute note
| b   Bend
| pb  Pre-bend
| br  Bend release
| pbr Pre-bend release
| brb Bend release bend

************************************
(Visited 1 times, 1 visits today)

Comments are closed.