Steven Universe Theme Tabs – Rebecca Sugar

 -------------------------------------------------------------------------------
                             SONG NAME - Band Name
-------------------------------------------------------------------------------
:


Tuning:

e|---------------------------------------------------------------------------|
B|----0-----------0-----------0-----------0-----------0----------------------|
G|------2-0-2-------2-0-2-------2-0-2-0-----2-0-2-0-----2-0-2-0--------------|
D|--0---------2-0---------0-0-----------2-----------2-----------2-0-2-2-0----|
A|---------------------------------------------------------------------------|
E|---------------------------------------------------------------------------|

e|---------------------------------------------------------------------------|
B|--0-----------0------------------------------------------------------------|
G|----2-0-2-0-----2-2-0------------------------------------------------------|
D|------------2--------------------------------------------------------------|
A|---------------------------------------------------------------------------|
E|---------------------------------------------------------------------------|


************************************

| /   slide up
| \   slide down
| h   hammer-on
| p   pull-off
| ~   vibrato
| +   harmonic
| x   Mute note
| b   Bend

************************************
(Visited 1 times, 1 visits today)

Comments are closed.