Sunrise Tabs by Our Last Night

 ----------------------------------------------------------------------------
                            Sunrise
                          Our Last Night
----------------------------------------------------------------------------

What a great way to show that Our Last Night can do more than just cover songs.
“Sunrise” is a beautiful piece with powerful instrumentals. I hope to see more great 
songs by
Our Last Night in the future. Enjoy!

Username: dkm817 (same on X box live)
Youtube Cover: http://www.youtube.com/watch?v=cZ45ul2xCx8
Email: guitardrums@rockfan.com

Guitar 1 Rhythmic (C G C F A D)
Guitar 2 Lead     (C G C F A D)
Guitar 3 Mixed    (C G C F A D)

NOTE: This was exported off of guitar pro.


Guitar 1

                                     H        E  E  E  E
D||-------|-------|-------|-------|--2--------2--0--------|
A||-------|-------|-------|-------|-----------------2--0--|
F||-------|-------|-------|-------|-----------------------|
C||-------|-------|-------|-------|-----------------------|
G||-------|-------|-------|-------|-----------------------|
C||-------|-------|-------|-------|-----------------------|


  H        E  E  Q       Q    Q    Q    Q       Q    H        Q
----------------------|------------0----L----|---------------------|
--2--------2--5--2----|--L-------------------|--0------------------|
----------------------|-----------------2----|-------1--------L----|
----------------------|-------2----L---------|---------------------|
----------------------|----------------------|---------------------|
----------------------|----------------------|---------------------|


  W                   W
-------------------|-------------------|-------------------|-------------------|
-------------------|-------------------|-------------------|-------------------|
--2----------------|--L----------------|-------------------|-------------------|
-------------------|-------------------|-------------------|-------------------|
-------------------|-------------------|-------------------|-------------------|
-------------------|-------------------|-------------------|-------------------|


(00:37)


  ^                    ^                   ^
  W                    W                   W
--0----------------|---9----------------|--5----------------|
--3----------------|--10----------------|--5----------------|
--2----------------|---9----------------|--6----------------|
--4----------------|--11----------------|--7----------------|
-------------------|--------------------|-------------------|
-------------------|--------------------|-------------------|


  ^                   ^                    ^
  W                   W                    W
--4----------------|--0----------------|---9----------------|
--5----------------|--3----------------|--10----------------|
--4----------------|--2----------------|---9----------------|
--6----------------|--4----------------|--11----------------|
-------------------|-------------------|--------------------|
-------------------|-------------------|--------------------|


  ^                   ^                   ^
  W                   W                   W                   W
--5----------------|--4----------------|--0----------------|--L----------------|
--5----------------|--5----------------|--3----------------|--L----------------|
--6----------------|--4----------------|--2----------------|--L----------------|
--7----------------|--6----------------|--4----------------|--L----------------|
-------------------|-------------------|-------------------|-------------------|
-------------------|-------------------|-------------------|-------------------|


   ^                    ^                    ^
   W                    W                    W
---9----------------|--------------------|--------------------|
--10----------------|--10----------------|--------------------|
--11---------
(Visited 1 times, 1 visits today)

Comments are closed.