Synesthesia Chords – Mayonnaise

Key: A
Standard Tuning

Intro:
LEAD
|--------------------------------------------------|
|--------------------------------------------------|
|--9--7--6-----9--7--6-----------------------------|  2x
|----------9------------7-----7--9s11--9--6--7s9--7|
|--------------------------------------------------|
|--------------------------------------------------|
RHYTHM
    A         E        F#m        D  
|-------| |-------| |--2----| |---2---|
|---2---| |-------| |--2----| |---3---|
|---2---| |---1---| |--2----| |---2---|  2x
|---2---| |---2---| |--2--4-| |-------|
|-------| |---2---| |--2--4-| |-------|
|-------| |-------| |--2----| |-------|

Verse I:

F#m   E     D
Save your smile
F#m        E            D
Everything fades through time
F#m     E      D
I'm lost for words
F#m       E          D
Endlessly waiting for you
F#m   E   D
Stay with me
F#m        E           D
Yes I know, this cannot be
F#m     E   D
As morning comes,
F#m               E            D
I say good bye to you when I'm done
      E
Through the sun...

Chorus:

          A                     E
Because I've been waiting for you
               F#m
Waiting for this
                  D                   A
Dream to come true, just to be with you.
          E                 F#m
And if die, remember this line,
               D              A       E
I'm always here, guarding your life...
         F#m-E-D (Then Palm Mute)
Guarding your life...

VERSE 2

F#m  E   D
I am yours
F#m            E              D
I'm completely trapped in your soul
F#m    E      D
Dazed and confused
F#m           E          D
Swept away with your own words.
F#m    E   D
You're my star
F#m         E           D
Invincible, haunting and far
F#m    E   D
Grace under fire
F#m           E          D            E
Someone is building my hurt, in my heart...

CHORUS:

        A                     E
Because I've been waiting for you, 
              F#m
Waiting for this,
                 D                   A
Dream to come true, just to be with you.
          E                   F#m
And if die, remember this lines,
              D            
I'm always here, guarding you

Bridge:

F#m    E              A
Slowly falling into you
                   E                       F#m  
I'm obsessed with the fact that I'm with you.
            E                D              E
And I can't breathe without you...... Ohhhhhhhhhh

Chorus:

          A               E                   F#m
       |------|        |------|             |------|
       |-2----|        |-0----|             |-2----|
       |--2---|        |--1---|             |--2---| (Then Strum)
       |---2--|        |---2--|             |---4--|
       |----0-|        |----2-|             |----4-|
       |------|        |------|             |------|

Because I'm waiting for you, been waiting for this
                  D                    A
Dream to come true, just to be with you.
            E                   F#m
And if I die, remember this lines,
              D                 A - E - F#m - D
I'm always here, guarding your life...

LEAD
|--------------------------------------------------|
|--------------------------------------------------|
|--9--7--6-----9--7--6-----------------------------|  
|----------9------------7-----6---4----------------|
|--------------------------------------------------|
|--------------------------------------------------|

RHYTHM
    A         E        F#m   -    E   -    D  
|-------| |-------| |--2----| |-------| |---2---|
|---2---| |-------| |--2----| |-------| |---3---|
|---2---| |---1---| |--2----| |---1---| |---2---|  
|---2---| |---2---| |--2--4-| |---2---| |-------|
|-------| |---2---| |--2--4-| |---2---| |-------|
|-------| |-------| |--2----| |-------| |-------|

Ooohh ooohh... ohoh...

Comments are closed.