Tainted Love Tabs – Soft Cell Vsion 3

 Intro: e|-----------------------------------------------|
       B|-8-8~------------------------------------------|
       G|-----------------------8-8--5~---------8-8--5~-|
       D|------x-5-5~-x-5-5-8-8-8-8-85~-5-5-8-8-8-8-85~-|
       A|------x-5-5~-x-5-5-8-8-6-6-83~-5-5-8-8-6-6-83~-|
       E|------x-3-3~-x-3-3-6-6-----6---3-3-6-6-----6---|

Verse: e|-----------------------------------------------------------------|
       B|-----------------------------------------------------------------|
       G|-----------------------------------------------------------------| X2
       D|-----------------5-5-------------5-5-----------------------------|
       A|---------6-6---3-5-5-----6-6---3-5-5-----6-6---3-----------------|
       E|-3-3-6-6-----6---3-3-6-6-----6---3-3-6-6-----6---3-3-3-3-6-6-6-6-|

          Sometimes I feel I've got to run away. I got to get away from the pain you drive into the heart of me.

          The love we share seems to go nowhere. And I've lost my light. I toss and turn, I can't sleep at night

Pre-Chorus: e|---------------------------------------------------------------------------------|
            B|---------------------------------------------------------------------------------|
            G|---------------------------------------------------------------------------------|
            D|---------------------------------------------------------------------------------|
            A|---------------------------------6-6-6-6-6-6-6-6-3-3-3-3-3-3-3-3-3-3-3-3-3-3-3-3-|
            E|-3-3-3-3-3-3-3-3-6-6-6-6-6-6-6-6-------------------------------------------------|

               Once I ran to you (I ran). Now I run from you.

               This tainted love you've given, I give you all a boy could give you.

               Take my tears and that's not nearly ALL!

Chorus: e|-----------------|
        B|-----------------|
        G|---------8-8--5~-| X2
        D|-5-5-8-8-8-8-85~-|
        A|-5-5-8-8-6-6-83~-|
        E|-3-3-6-6-----6---|

           Tainted love (oh)

           Tainted love

Verse: e|-----------------------------------------------------------------|
       B|-----------------------------------------------------------------|
       G|-----------------------------------------------------------------| X2
       D|-----------------5-5-------------5-5-----------------------------|
       A|---------6-6---3-5-5-----6-6---3-5-5-----6-6---3-----------------|
       E|-3-3-6-6-----6---3-3-6-6-----6---3-3-6-6-----6---3-3-3-3-6-6-6-6-|

          Now I know I've got to run away. I got to get away, you don't really want any more from me.

          To make things right you need someone to hold you tight.

          And you think love is to pray. But I'm sorry, I don't pray that way.

Pre-Chorus: e|---------------------------------------------------------------------------------|
            B|---------------------------------------------------------------------------------|
            G|---------------------------------------------------------------------------------|
            D|---------------------------------------------------------------------------------|
            A|---------------------------------6-6-6-6-6-6-6-6-3-3-3-3-3-3-3-3-3-3-3-3-3-3-3-3-|
            E|-3-3-3-3-3-3-3-3-6-6-6-6-6-6-6-6-------------------------------------------------|

               Once I ran to you (I ran). Now I run from you.

               This tainted love you've given, I give you all a boy could give you.

               Take my tears and that's not nearly ALL!

Chorus: e|-----------------|
        B|-----------------|
        G|---------8-8--5~-| X3
        D|-5-5-8-8-8-8-85~-|
        A|-5-5-8-8-6-6-83~-|
        E|-3-3-6-6-----6---|

           Tainted love (oh)

           Tainted love

           Don't touch me, please, for I cannot stand the way you tease.

        e|---------------------------------|
        B|---------------------------------|
        G|----------------------------

Comments are closed.