Terrapin Station Tabs by Grateful Dead V2

 Intro:

F

Jerry:
E|----1---1---1-1--0--1--------|
B|----1---1---1-1--0--1--------|
G|----2---2---2-2--2--2--------|
D|----3---3---3-3--3--3--------|
A|----3---3---3-3--3--3--------|
E|-----------------------------|    (repeat)

Bobby:
E|-----------------------------------------|
B|---------12\10--10x---13-13--12--13------|
G|-------12--\10--10x---10-10--10--10------|
D|--10/12----\10--10x---10-10--10--10------|
A|-----------------------------------------|
E|-----------------------------------------|  (repeat)

(riff 1):  (end of verse riff)

E|-------1--5-3---------|
B|-----1---------0-1----|
G|---2------------------|
D|----------------------|
A|----------------------|
E|----------------------|

Verses:     Lady With A Fan:

G                  Dm      Dm    C      G          F
Let my inspiration flow in token rhyme, suggesting rhythm,
F                C                F                C      F (riff 1)
That will not forsake me, till my tale is told and done.

G                      Dm            Dm      C        G           F
While the firelights aglow, strange shadows from the flames will grow,
F                       C              F           F
Till things weve never seen will seem familiar.

G                    Dm      Dm         C        G        F
Shadows of a sailor, forming winds both foul and fair all swarm.
F                    C            F             C      F   (riff 1)
Down in Carlisle, he loved a lady, many years ago.


G                        Dm     Dm      C        G        F
Here beside him stands a man, a soldier from the looks of him,
F                     C                   F      F
Who came through many fights, but lost at love.

G                     Dm        Dm       C      G    F
While the storyteller speaks, a door within the fire creaks,
F              C           F                C      F    (riff 1)
Suddenly flies open, and a girl is standing there.

G                         Dm    Dm       C     G         F
Eyes alight, with glowing hair, all that fancy paints as fair,
F                     C                 F             F
She takes her fan and throws it, in the lions den.

G                       Dm         Dm     C       G        F
Which of you to gain me tell, will risk uncertain pains of hell?
F             C               F                 C       F   (riff 1)
I will not forgive you if you will not take the chance.

G                          Dm       Dm      C     G        F
The sailor gave at least a try, the soldier being much too wise,
F                C                   F            F
Strategy was his strength, and not disaster.

Solo:
    G                Dm    Dm       C     G           F
E|----------------12-13-|--17---20--15----------------------|
B|--15---12-13-15-------|----------------15-13-12-----------|
G|----------------------|-------------------------12-14-----|
D|----------------------|-----------------------------------|
A|----------------------|-----------------------------------|
E|----------------------|-----------------------------------|

    F                 C               F
E|------------------------|---------------------------------|
B|--------12--------------|--------------12-----------------|
G|--13h14---14--12-14-12--|-------12--14---14--12-----------|
D|------------------------|--13h14--------------------------|
A|------------------------|---------------------------------|
E|------------------------|---------------------------------|

    C              F                    F
E|--------------|--------13--17-15---|----------------------|
B|--------13----|-----13-------------|--15---12h13----------|
G|-----12-------|--14----------------|----------------------|
D|--14----------|--------------------|----------------------|
A|--------------|--------------------|----------------------|
E|--------------|--------------------|----------------------|
       G  
(Visited 1 times, 1 visits today)

Comments are closed.