The Hardest Part Tabs by Nina Nesbitt

  
  Hi there!  This was a request over at Live Love Guitar.  It is 
another song I'd never heard before and instantly- I'm in love!!  
I had to drop everything I was doing and tab it :))) So thanks
for the request and introducing me to a new artist!

**IMPORTANT NOTES**
When picking- The Em7's are [020000] and during the strumming parts
they're [022033]. And also with the Cadd9- During the picking 
I have it labeled 'Cadd9' but I guess it's really a C/B [032000] but 
when strumming it's a regular ol' Cadd9 [032033].  Got it? :)
Play along with the song to get the timing down.  Here's the link it
was directly tabbed to- 


 


STANDARD TUNING w/
CAPO ON 2



Intro-

    G                    Em7                 Cadd9
e|-------------------------------------------------------------------------------|
B|---------------------------------------------------------0----------------0----|
G|------0--------0----------0--------0----------0-----------------0--------------|
D|----0---0----0---0------0---0----0---0------2---2----2--------2---2----2-------| x2
A|------------------------------------------3--------3--------3--------3---------|
E|--3--------3----------0--------0-----------------------------------------------|



Verse1-

    G                    Em7                 Cadd9
e|-------------------------------------------------------------------------------|
B|-------------------------------------------------------------------------------|
G|------0--------0----------0--------0----------0--------0--------0--------0-----|
D|----0---0----0---0------0---0----0---0------2---2----2---2----2---2----2---2---| x2
A|------------------------------------------3--------3--------3--------3---------|
E|--3--------3----------0--------0-----------------------------------------------|
                         
G                    Em7
Pretend you're happy, pretend we're fine
Cadd9
I guess that's easier after all this time
G                            Em7
Talk about other  girls then look in my eyes
Cadd9
I know you still hold on to us inside



    Am7                 D
e|-----------------------------------------------2-----|
B|--------------------------3--------3--------3--------|
G|-------0--------0-------2---2----2---2----2----------|
D|-----2---2----2-------0--------0--------0------------|
A|---0--------0----------------------------------------|
E|-----------------------------------------------------|

       Am7                    D
But we watched that butterfly fly



Chorus-

    G                    Em7                 Cadd9
e|-------------------------------------------------------------------------------|
B|-------------------------------------------------------------------------------|
G|------0--------0----------0--------0----------0--------0--------0--------0-----| x3
D|----0---0----0---0------0---0----0---0------2---2----2---2----2---2----2---2---|
A|------------------------------------------3--------3--------3--------3---------|
E|--3--------3----------0--------0-----------------------------------------------|


G                         Em7               Cadd9                  
I'd give anything just to be with you again but it's not the right time
    G                         Em7                 
And I'd give anything just to feel you on my skin
    Cadd9                                                    G          Em7
But it's not the right time and it'll never be the right time, will it?
             Cadd9                                                   
And it might never be the right time and that's the hardest part of it




G  Em7 Cadd9


    G                    Em7                 Cadd9
e|-------------------------------------------------------------------------------|
B|---------------------------------------------------------0---------------------|
G|------0--------0----------0-
(Visited 1 times, 1 visits today)

Comments are closed.