The Miracle Of Joey Ramone Tabs – U2 V2

                     U2 – The Miracle (of Joey Ramone)               135 bpm

Intro (shuffle feel) *with fuzz 
e ||:----------------|----------------|----------------|----------------:||
b ||:----------------|----------------|----------------|----------------:||
g ||:----------------|----------------|----------------|4---4---2-------:||
D ||:7---7-----------|7---7-----------|7---7-----x-x---|5---5---3-------:||
A ||:7---7-----------|7---7-----------|7---7-----x-x---|5---5---3-------:||
E ||:5---5---------0-|5---5---------0-|5---5-----x-x---|3---3---1-------:|| 
     1 + 2 + 3 + 4 +  1 + 2 + 3 + 4 +  1 + 2 + 3 + 4 +  1 + 2 + 3 + 4 +  x2
Verse *with delay + shimmer
e ||:----------------|----------------|----------------|----------------:||
b ||:--10--10--10--10|--10--10--10--10|--10--10--10--10|--10---8---8---8:||
g ||:-9---9---9---9--|-9---9---9---9--|-9---9---9---9--|-9---9---9---9--:||
D ||:----------------|----------------|----------------|----------------:||
A ||:----------------|----------------|----------------|----------------:||
E ||:----------------|----------------|----------------|----------------:||
      1 + 2 + 3 + 4    1 + 2 + 3 + 4    1 + 2 + 3 + 4    1 + 2 + 3 + 4   x4
Pre-Chorus *with fuzz 
e |----------------|----------------|----------------|----------------|
b |----------------|----------------|----------------|----------------|
g |----------------|5-5-5-----------|----------------|----------------|
D |7-7-7-----------|5-5-5-----------|5-5-5-----------|3-3-3---2-2-2---|
A |7-7-7-----------|3-3-3-----------|5-5-5-----------|3-3-3---2-2-2---|
E |5-5-5-----------|----------------|3-3-3-----------|1-1-1---0-0-0---|
   1 + 2 + 3 + 4 +  1 + 2 + 3 + 4 +  1 + 2 + 3 + 4 +  1 + 2 + 3 + 4 +
e |----------------|----------------|----------------|----------------|
b |--------10--10--|--------10--10--|----------------|----------------|
g |-----------9----|5-5-5------9----|7-7-7-----------|4-------5-------|
D |7-7-7-----------|5-5-5-----------|7-7-7-----------|----------------|
A |7-7-7-----------|3-3-3-----------|5-5-5-----------|----------------|
E |5-5-5-----------|----------------|----------------|----------------|
   1 + 2 + 3 + 4 +  1 + 2 + 3 + 4 +  1 + 2 + 3 + 4 +  1 + 2 + 3 + 4 +
e |----------------|----------------||
b |----------------|----------------||
g |----------------|----------------||
D |7b9r7b9r7b9r7b9r|7b9r7b9r7-------||
A |----------------|----------------||
E |----------------|----------------||
   1 + 2 + 3 + 4 +  1 + 2 + 3 + 4 +
Chorus
e |----------------|----------------|----------------|----------------|
b |----------------|----------------|----------------|----------------|
g |----------------|7---7---7---7---|----------------|----------------|
D |5---5---5---5---|7---7---7---7---|9---9---9---9---|7--/12-\11-\7---|
A |5---5---5---5---|5---5---5---5---|9---9---9---9---|7---------------|
E |3---3---3---3---|----------------|7---7---7---7---|5--/10--\9-\5---|
   1 + 2 + 3 + 4 +  1 + 2 + 3 + 4 +  1 + 2 + 3 + 4 +  1 + 2 + 3 + 4 +
e |----------------|----------------|----------------|----------------|
b |----------------|----------------|2--h3---3p2---2-|2--h3---3p2-----|
g |----------------|7---7---7---7---|2---2---2-2---2-|2---2---2-2-----|
D |5---5---5---5---|7---7---7---7---|2--h4---4p2---2-|2--h4---4p2-----|
A |5---5---5---5---|5---5---5---5---|0-------------0-|0---------------|
E |3---3---3---3---|----------------|----------------|----------------|
   1 + 2 + 3 + 4 +  1 + 2 + 3 + 4 +  1 + 2 + 3 + 4 +  1 + 2 + 3 + 4 +
e |----------------|----------------|----------------|----------------|
b |----------------|----------------|----------------|----------------|
g |----------------|7---7---7---7---|----------------|----------------|
D |5---5---5---5---|7---7---7---7---|9---9---9---9---|7--/12-\11-\7---|
A |5---5---5---5---|5---5---5---5---|9---9---9---9---|7---------------|
E |3---3---3---3---|----------------|7---7---7---7---|5--/10--\9-\5---|
   1 + 2 + 3 + 4 +  1 + 2 + 3 + 4 +  1 + 2 + 3 + 
(Visited 1 times, 1 visits today)

Comments are closed.