The Rest You Can Live Without Tabs by Oceanship

 Okay this is just the main riff really. I'm not great at learning by ear or
tabbing but this is all I've made out of it but hey this could get you somewhere so enjoy.

Standard Tuning
Capo 4th Fret
Numbers are relative to capo positioning

e-------------------------------------------------------------------|
B-5----5--5--3-----------3---3--3------------3---3--3---------------|
G--------------5-4-2--------------5-4-2---------------5-4-2--4------|
D---------------------------------------5----------------------5--7-|
A-0----------------------5-------------------5----------------------|
E-------------------------------------------------------------------|


e--------------------------------------------------------------------|
8B-5----5--5--3-----------3---3--3------------3---3--3---------------|
G--------------5-4-2--------------5-4-2---------------5-4-2--4-------|
D---------------------------------------5----------------------5-----|
A-0----------------------5-------------------5-----------------------|
E--------------------------------------------------------------------|
(Visited 1 times, 1 visits today)

Comments are closed.