The Stars Keep On Calling My Name solo Tabs – Mac Demarco

 This is the solo at the end of the album version song:

From 1:45 to the end (2:23)

Note: the solo in the live version is 100% different, so make sure you listen the album/studio version.

Tuning: Standard (EADGBe)

e -----------------------
B --/15-15-15-15----15---
G -----------------------
D -----------------------
A -----------------------
E -----------------------

e ------------------15---
B --/15-15-15-15---------
G -----------------------
D -----------------------
A -----------------------
E -----------------------

e ------------------------------------
B --/15-15-15-15p12-------------------
G ------------------14p12-14-14p12-14-
D ------------------------------------
A ------------------------------------
E ------------------------------------

e ------------------17---
B --/15-15-15-15---------
G -----------------------
D -----------------------
A -----------------------
E -----------------------

e ------------------15---
B --/15-15-15-15---------
G -----------------------
D -----------------------
A -----------------------
E -----------------------

e ----------------------------
B --/15-15-15-15----15p12-----
G ------------------------14--
D ----------------------------
A ----------------------------
E ----------------------------

e -----------------------
B --/15-15-15-15----15---
G -----------------------
D -----------------------
A -----------------------
E -----------------------

e ------------------15---
B --/15-15-15-15---------
G -----------------------
D -----------------------
A -----------------------
E -----------------------

e ----------------19-17b19b17-15-15-17---
B --/15-15-15-15-------------------------
G ---------------------------------------
D ---------------------------------------
A ---------------------------------------
E ---------------------------------------

                                  (wait)
e ---------------------------------------------------------------------------------------------------
B --/15-15-15-15----15p12-15-15-------------12-------------------------------------------------------
G ----------------------------------------------14-14-----14b16b14-14-12-14---14b16b14-14-12-12------
D ---------------------------------------------------------------------------------------------------
A ---------------------------------------------------------------------------------------------------
E ---------------------------------------------------------------------------------------------------

e ----------------------
B ----------------------
G --14b16b14-14-12-12---
D ----------------------
A ----------------------
E ----------------------


Notation:
"/15" means slide from anywhere.
"14b16b14" means bend "14" until it sounds like "16" and from there bend it back so it sounds again like "14"
(Visited 1 times, 1 visits today)

Comments are closed.