The Terror Chords – Flaming Lips

 The Flaming Lips
The Terror - Chords
The Terror

Intro (0:01-0:21)

      F#m E F#m F#m F#m E F#m F#m 

Verse 1 (0:21-1:01)

      F#m E F#m 
     However love can help you
      F#m E F#m 
     We are all standing alone
      F#m E F#m 
     The terror's in our heads
      F#m E F#m 
     We don't control the controls

Break 1 (1:01-1:11)

      F#m 

Verse 2 (1:11-1:50)

      F#m E F#m 
     I turn to face the sun
      F#m E F#m 
     We are still standing alone
      F#m E F#m 
     At last we'll sing of the terror
      F#m E F#m 
     It helps us hold the controls

Chorus (1:50-2:30)

            F#m E F#m 
     We'll sing in the sunshine
            F#m E F#m 
     We'll laugh every day
            F#m E F#m 
     We'll sing cause love will save us
          F#m E F#m 
     The sunshine every day

Break 2 (2:30-2:50)

      F#m 

       A second guitar can play this.
     e|---------------------------------------------------------------|
     B|-5---2---5---2---5---2---5---2---5---2---5---2---5---2---3---2-|
     G|---------------------------------------------------------------|
     D|---------------------------------------------------------------|
     A|---------------------------------------------------------------|
     E|---------------------------------------------------------------|

     OR:

     One guitar can play both the rhythm and lead.

     e|-0-------0-------0-------0-------0-------0-------0-------------|
     B|-2---2---2---2---2---2---2---2---2---2---2---2---2---2---3---2-|
     G|-2---2---2---2---2---2---2---2---2---2---2---2---2---2---2---2-|
     D|-4---4---4---4---4---4---4---4---4---4---4---4---4---4---4---4-|
     A|-4---4---4---4---4---4---4---4---4---4---4---4---4---4---4---4-|
     E|-2---2---2---2---2---2---2---2---2---2---2---2---2---2---2---2-|

Chorus (2:50-3:30)

Break 2 x2 (3:30-4:10)

Bridge (4:10-4:49)

      F#m 
     Your voice says yes but I can't go on
      F#m 
     Your voice says yes but I can't go more
      F#m 
     What gives judgment the final word
      F#m 
     When at once the sacred word can't be heard

Break 2 x2 (4:49-5:29)

The song fades out during this last part.
(Visited 1 times, 1 visits today)

Comments are closed.