Thirty One Sevens Tabs by I Killed The Prom Queen

 C#|---------------------------------------------------------------|
G#|------------------------------------------13-------------------|
E |------14----------------14----14-------------------------------|
B |-12------15-14-12-14-15----12----15-14-15----------------------|
F#|---------------------------------------------------------------|
B |---------------------------------------------------------------|



C#|---------------------------------------------------------------|
G#|------------------------------------------13-15----------------|
E |------14----------------14----14-------------------------------|
B |-12------15-14-12-14-15----12----15-14-15----------------------|
F#|---------------------------------------------------------------|
B |---------------------------------------------------------------|



C#|---------------------------------------------------------------|
G#|---------------------------------------------------------------|
E |---------------------------5---7-------------------------------|
B |-0---0000000~--000~--000-----------0000000~--000~--000---10----|
F#|-0---0000000~--000~--000---3---5---0000000~--000~--000---10----|
B |-0---0000000~--000~--000-----------0000000~--000~--000---10----|
        xxxxxxx   xxx   xxx           xxxxxxx   xxx   xxx


C#|---------------------------------------------------------------|
G#|------------------------------------------13-------------------|
E |------14----------------14----14-------------------------------|
B |-12------15-14-12-14-15----12----15-14-15----------------------|
F#|---------------------------------------------------------------|
B |---------------------------------------------------------------|



C#|---------------------------------------------------------------|
G#|------------------------------------------13-15----------------|
E |------14----------------14----14-------------------------------|
B |-12------15-14-12-14-15----12----15-14-15----------------------|
F#|---------------------------------------------------------------|
B |---------------------------------------------------------------|



C#|---------------------------------------------------------------|
G#|---------------------------------------------------------------|
E |---------------------------5---7-------------------------------|
B |-0---0000000~--000~--000-----------0000000~--000~--000-7-5-----|
F#|-0---0000000~--000~--000---3---5---0000000~--000~--000-----7---|
B |-0---0000000~--000~--000-----------0000000~--000~--000---------|
        xxxxxxx   xxx   xxx           xxxxxxx   xxx   xxx

   x2
C#|---------------------------------------------------------------|
G#|---------------------------------------------------------------|
E |-----------------------------------10--------------------------|
B |---------------------------------7-----------------------------|
F#|-8h12p8--------12---10---8---7----------8h12p8--------12---10--|
B |--------10-0-0----0----0---0---0------7--------10-0-0----0-----|
                x    x    x   x   x x                  x    x


C#|---------------------------------------------------------------|
G#|---------------------------------------------------------------|
E |----------------------------------------------------10---------|
B |-88888---55555------------------------------------7------------|
F#|-88888---55555---8h12p8--------13-12-10---8---7----------------|
B |-88888---55555----------10-0-0----------0---0---0------7-------|
    xxxx    xxxx                x          x   x   x x


C#|---------------------------------------------------------------|
G#|---------------------------------------------------------------|
E |------------------------------------------9--------------------|
B |-----------------------8888----------5555----------------------|
F#|-8h12p8--------12---10-8888-7h10p7p0-5555-7--------------------|
B |--------10-0-0----0----8888----------5555---------

Comments are closed.