Under And Over It Tabs – Five Finger Death Punch V2

 -----------------------------------------------------------------------------------------
|                      FIVE FINGER DEATH PUNCH - UNDER AND OVER IT                      |
|                            American Capitalist (2011)                           |
-----------------------------------------------------------------------------------------
           If you have questions or corrections feel free to send me a message:
                        http://profile.ultimate-guitar.com/godspeedy/
                           https://www.facebook.com/Godspeedy14
                           
        Also, check out my Youtube channel: http://www.youtube.com/user/Godspeedy14

                                  Tuning: 6 string BEADF#B 
                                                        
**************************************GUITAR NOTATIONS***********************************
*                                                                                       *
*                                | *   palm mute         |                              *
*                                | s   slide             |                              *
*                                | h   hammer-on         |                              *
*                                | p   pull-off          |                              *
*                                | ~   vibrato           |                              *
*                                | x   Mute note         |                              *
*                                | b   bend              |                              *
*                                | ..  let ring          |                              *
*                                                                                       *
*****************************************************************************************

-----------------------------------------------------------------------------------------
|                                    INTRO (00:00-00:25)                                |
-----------------------------------------------------------------------------------------

I. Guitars 1 and 2 (w/ dist)

 B|------------------------------|----------------------------|
F#|------------------------------|----------------------------|
 D|------------------------------|----------------------------| x4
 A|------------------------------|----------------------------|
 E|---------2--2--------------3--|---2------------------------|
 B|-3b--p0--0--0--0-3-5-3-0-0-1--|---0--0--0--0-1-3-0-1-3-1-0-|
            *  *  * * * * * *           *  *  * * * * * * * *

II. Guitars 1 and 2 (w/ dist)

 B|-------------------------|-------------------------|
F#|-------------------------|-------------------------|
 D|-------------------------|-------------------------|
 A|-------------------------|-------------------------|
 E|-2-----2-----2--3--2-----|----2-----2--2--3--2-----|
 B|-0--0--0--0--0--1--0--0--|-0--0--0--0--0--1--0--0--|\
       *     *           *    *     *              *    x2
 B|-------------------------|---------------------|    /
F#|-------------------------|---------------------|   /
 D|-------------------------|---------------------|  /
 A|-------------------------|---------------------| /
 E|-2-----2-----2--3--2--2--|--2--2--2---3--3--2--|/
 B|-0--0--0--0--0--1--0--0--|--0--0--0---1--1--0--|
       *     * 

    Guitar 3 (w/ dist)
   .......................                  ............
 B|-----7------7------|--7---7--7--8--7---|-----7------7---7--|--7--7--7--7--8--8--7--|
F#|-5-------5------5--|------5--5--6--5---|-5-------5------5--|--5--5--5--5--6--6--5--|
 D|-------------------|-------------------|-------------------|-----------------------| x2
 A|-------------------|-------------------|-------------------|-----------------------|
 E|-------------------|-------------------|-------------------|-----------------------|
 B|-------------------|-------------------|-------------------
(Visited 1 times, 1 visits today)

Comments are closed.