Vartiotoimistoon Tabs by Klamydia

 Klamydia - Vartiotoimistoon

: skyturnedred

Tuning: Standard EADGBe


INTRO:
        
    F#5         E5       D5       E5     F
E|------------------------------------------|
B|------------------------------------------|
G|-11-11-11-11--9-9-9-9--7-7-7-7--9-9-9-10--|
D|-11-11-11-11--9-9-9-9--7-7-7-7--9-9-9-10--|
A|--9--9--9--9--7-7-7-7--5-5-5-5--7-7-7--8--|
E|------------------------------------------|

   F#5          E5       D5       E5
E|------------------------------------------|
B|------------------------------------------|
G|-11-11-11-11--9-9-9-9--7-7-7-7--9---------|
D|-11-11-11-11--9-9-9-9--7-7-7-7--9---------|
A|--9--9--9--9--7-7-7-7--5-5-5-5--7---------|
E|------------------------------------------|

VERSE1:

 F#5                E5               D5           E5   
Muijaskin jätti ja turpaan mätti ja olos oli kuin märkä rätti
   F#5             E5         D5            E5
Jo tarhassa sulle naurettiin päätäs seinään hakattiin
F#5        E5            D5        E5
Koulus jäi kesken mutta jotain keksit sä äsken
D5           F#5      D5         F#5
Univormun sä sait    ihan tosta vain
 D5         F#5            A5       E5
Tosi komeen harmaan kaikki kadehtii varmaan


KERTSI x2:

        D5     E5       F#5    
Sä menit vartiotoimistoon joo joo
D5     E5       F#5    
viikon kurssi ja valmis oot
D5     E5       F#5 
Vartiotoimistoon joo joo
A5               E5
viikon kurssi ja valmis oot


VERSE2:

F#5          E5          D5            E5   
Tästä nautintoa saat pääs alkaa mulkkua muistuttaa
   F#5             E5             D5            E5
Seura tekee näemmä kaltaisekseen Sitarin vaksiin tutustuit äsken
F#5        E5           D5           E5         *
Appelsiinit kainaloon univormu päälle ja vartiotoimistoon!


*
E|------------------------------------|     |---------|
B|------------------------------------|     |---------|
G|----------76-4-44-------------------|     |---------|
D|-4-4-4-4--76-4-44--7-7-7-7-2-2-2-2--|  x2 |-4-------|
A|-4-4-4-4--54-2-22--7-7-7-7-2-2-2-2--|     |-4-------|
E|-2-2-2-2-----------5-5-5-5-0-0-0-0--|     |-2-------|
                          Vartiokeskukseen!


KERTSI:

        D5     E5       F#5    
Sä menit vartiotoimistoon joo joo
D5     E5       F#5    
viikon kurssi ja valmis oot
D5     E5       F#5 
Vartiotoimistoon joo joo
A5               E5
viikon kurssi ja valmis oot

        D5     E5       F#5    
Sä menit vartiokeskukseen joo joo
D5     E5       F#5    
viikon kurssi ja valmis oot
D5     E5       F#5 
Vartiokeskukseen joo joo
A5               E5
viikon kurssi ja valmis oot

    F#5
Vartiotoimistoon!

Comments are closed.