We Drag The Dead On Leashes Tabs – Being As An Ocean

 Track: We Drag The Dead On Leashes
Artist: Being As An Ocean
 How We Both Wondrously Perish (2014)
Tuning: Drop D (D A D G B e)

---

: Noah Maranesi
Website: Instagram.com/n04hz_ark

Simple, non-repeated version available at the bottom (after Outro)

---

Intro (0:05)
                                                x2
e|-----------------------------------------------|
B|-----------------------------------------------|
G|-----------------------------------------------|
D|--------4--------4--------4--------4--------0--|
A|-----5--------5--------5--------5--------7-----|
D|--5--------5--------5--------5--------7--------|


Verse (0:12)

    "We've all done things that we're ashamed of..."
                                                x3
e|-----------------------------------------------|
B|-----------------------------------------------|
G|-----------------------------------------------|
D|--------4--------4--------4--------4--------0--|
A|-----5--------5--------5--------5--------7-----|
D|--5--------5--------5--------5--------7--------|

e|-----------------------------------------------|
B|-----------------------------------------------|
G|-----------------------------------------------|
D|--------4--------4--------4--------4--------7--|
A|-----5--------5--------5--------5--------9-----|
D|--5--------5--------5--------5--------9--------|

  (Repeat Verse once again)


Post Verse (0:39)

e|------------------------------------------|
B|------------------------------------------|
G|------------------------------------------|
D|------------------------------------------|
A|------------------------------------------|
D|--(5)----(7)--(9)------(12)---(9)----(7)--|


Chorus (0:49) (Strum each chord noted twice)

    "And it seems we've been thrown into an endless cycle..."

e|-----------------------------------|
B|-----------------------------------|
G|-----------------------------------|
D|-----------------------------------|
A|--5-5-5-5-5-5-7-7-9-9-9-9-9-9-9-9--|
D|--5-5-5-5-5-5-7-7-9-9-9-9-9-9-9-9--|

e|----------------------------------|------------------|
B|----------------------------------|------------------|
G|----------------------------------|------------------|
D|----------------------------------|------------------|
A|--5-5-5-5-5-5-7-7-9-9-9-9-9-9-9-9-|-7-7-7-7-7-7-7-7--|
D|--5-5-5-5-5-5-7-7-9-9-9-9-9-9-9-9-|-7-7-7-7-7-7-7-7--|

    "Forget the things you hate in yourself..."

e|-----------------------------------|
B|-----------------------------------|
G|-----------------------------------|
D|-----------------------------------|
A|--5-5-5-5-5-5-7-7-9-9-9-9-9-9-9-9--|
D|--5-5-5-5-5-5-7-7-9-9-9-9-9-9-9-9--|

e|----------------------------------|------------------|
B|----------------------------------|------------------|
G|----------------------------------|------------------|
D|----------------------------------|------------------|
A|--5-5-5-5-5-5-7-7-9-9-9-9-9-9-9-9-|-7-7-7-7-7-7-7-7--|
D|--5-5-5-5-5-5-7-7-9-9-9-9-9-9-9-9-|-7-7-7-7-7-7-7-7--|


Re-Intro (1:22)
                                                x2
e|-----------------------------------------------|
B|-----------------------------------------------|
G|-----------------------------------------------|
D|--------4--------4--------4--------4--------0--|
A|-----5--------5--------5--------5--------7-----|
D|--5--------5--------5--------5--------7--------|

Verse (1:35) (Played twice)

    "We turn to others for some kind of safety..."
                                                x3
e|-----------------------------------------------|
B|-----------------------------------------------|
G|-----------------------------------------------|
D|--------4--------4--------4--------4--------0--|
A|-----5--------5--------5--------5--------7-----|
D|--5--------5--------5--------5--------7--------|

e|-----------------------------------------------|
B|-----------------------------------------------|
G|-----------------------------------------------|
D|-------

Comments are closed.