When The Darkness Comes chords – Colbie Caillat V5

 Colbie Caillat - When The Darkness Comes
Capo 2nd   6/8

Intro 
  Am            | E              | F              | Csus C       ||
--------------|--------------|--------------|--------------|
--------------|--------------|--------------|--------------|
----2-----2---|----1-----1---|----2-----2---|----0-----0---|
--2---2-2---2-|--2---2-2---2-|--3---3-3---3-|--3---3-2---2-|
-0-0-0-0-0-0--|--------------|--------------|-3-3-3-3-3-3--|
--------------|-0-0-0-0-0-0--|-1-1-1-1-1-1--|--------------|


Verse 1
 Am E F C D/F# F *
Underneath the echoes buried in the shadows, there you were
  Am E F C D/F# F 
Drawn into your mystery, I was just beginning to see your ghost
     D/F# F 
But you must know I'll

*(D/ F# F  )          
--------------|--------------|
--------------|--------------|
----2-----2---|----2-----2---|
--0---0-0---0-|--3---3-3---3-|
--------------|--------------|
-2-2-2-2-2-2--|-1-1-1-1-1-1--|


Chorus
  C G/B Am F 
Be here waiting, hoping, praying
   C E Am F 
That this light will guide you home
   C G/B Am F                  
When you're feeling lost I'll leave my
  C E Am F Am 
Love hidden in the sun for when the darkness comes


Int  ( Am )    | E      | F      | Csus C    ||


Verse 2
 Am E F C D/F# F      
Now the door is open the world I knew is broken, there's no return 
  Am E F C D/F# F 
Now my heart is not scared just knowing that you're out there watching me
 D/F# F 
So believe I'll






Chorus
  C G/B Am F 
Be here waiting, hoping, praying
   C E Am F 
That this light will guide you home
   C G/B Am F                  
When you're feeling lost I'll leave my
  C E Am F Am 
Love hidden in the sun for when the darkness comes


Int  ( Am )    | E       | F       | C                 |  Am     | E      | F      | C      | 
                            (When the darkness comes)
  
      D/F#     | F       | D/F#    | F       ||


Chorus
  C G/B Am F 
Be here waiting, hoping, praying
   C E Am F 
That this light will guide you home
   C G/B Am F                  
When you're feeling lost I'll leave my
  C E Am F C G/B Am F C 
Love hidden in the sun for when the darkness comes
  E Am F Am E F Csus C 
Hidden in the sun for when the darkness comes


(Visited 1 times, 1 visits today)

Comments are closed.