Wherever You Will Go Tabs – Calling V8

 -------------------------------------------------------------------------------
                           Wherever you will go - The Calling 
-------------------------------------------------------------------------------
:Ken Lavina
kenbrian03

Tuning:EADGBE
 
Intro:

e|--------------------|--------------------|------------------|----1-----1---1--|
B|----------1---------|------------0-------|------------1-----|-----------------|
G|------0----0--------|------0-------0-----|------2-------0---|-----------------|
D|----2---2----2------|----0----0------0---|----2----2------2-|-----------------|
A|--3----3------------|--2----2------------|--0----0----------|--3----3---------|
E|--------------------|--------------------|------------------|-1-------1--3----|

Verse: 1
 
e|--------------------|--------------------|------------------|-----------------|
B|--------0-1---1-----|--------0--1---1----|--------0-1---1---|--3---1---0--1---|
G|------0-----0-------|------0--0---0------|------2-----0-----|----0---0--------|
D|----2---------------|----0---------------|----2-------------|--3--------------|
A|--3-----------------|--2-----------------|--0---------------|-----------------|
E|--------------------|--------------------|------------------|-----------------|

e|--------------------|--------------------|------------------|-----------------|
B|--1-----0-1---1-----|--------3--1---1----|--------0-1---1---|--3---1---0--1---|
G|------0-----0-------|------0--0---0------|------2-----0-----|----0---0--------|
D|----2---------------|----0---------------|----2-------------|--3--------------|
A|--3-----------------|--2-----------------|--0---------------|-----------------|
E|--------------------|--------------------|------------------|-----------------|

Pre-Chorus:1

e|--------0-----------|----------0---------|------------------|-----------------|
B|--1---1---1---------|--3----3------------|--1----0-1--------|--3---1-0-1------|
G|------0-------------|--------------------|------------------|-----------------| 
D|------2-------------|--------------------|--2---------------|-----------------|
A|--3---3-------------|--------------------|------------------|-----------------|
E|--------------------|--3-3--3------------|------------------|--1---1----------|

e|--------0-----------|----------0---------|--1---0-----------|-----------------|
B|--1---1---1---------|--3----3------------|---------0-1------|--3---1-0-1------|
G|------0-------------|--------------------|------------------|-----------------| 
D|------2-------------|--------------------|--2---------------|-----------------|
A|--3---3-------------|--------------------|------------------|-----------------|
E|--------------------|--3-3--3------------|------------------|--1---1----------|


Chorus:

e|--------------------|--3-----------------|------------------|-----------------|
B|--1----0--1--1------|--3-----0--1--------|--1----0-1-1------|--3--1-0-1-------|
G|--0--0-------0------|--0--0--------------|--2--2-----2------|--2--------------|
D|--2----------2------|--0-----------------|--2--------2------|--3--------------|
A|--3----------3------|--2-----------------|------------------|-----------------|
E|--------------------|--3-----------------|------------------|-----------------|

e|--------------------|--3-----------------|------------------|-----------------|
B|--1----0--1--1------|--3-----3--1--------|--1----0-1-1------|--3--1-0-1--1----|
G|--0--0-------0------|--0--0--------------|--2--2-----2------|--2---------0----| 
D|--2----------2------|--0-----------------|--2--------2------|--3---------2----|
A|--3----------3------|--2-----------------|------------------|------------3----|
E|--------------------|--3-----------------|------------------|-----------------|

Verse:2

e|--------------------|--------------------|------------------|-----------------|
B|----0-1---1---------|---------3---2------|--------0--1---1--|--3---1---0--1---|
G|--0-----0-----------|------0---
(Visited 1 times, 1 visits today)

Comments are closed.