Wild Eyes solo Tabs by Parkway Drive V2

Songs in drop B 

Interlude 

Rythm guitar 
|------------------------------------------------------|
|------------------------------------------------------|
|------------------------------------------------------|
|------------------------------------------------------|
|--5777735----5777753----5777735-----------------------|
|------------------------------------------------------|


Lead/Solo 

|----------------2h3p2-2h3p2-------------------------|
|--5-5-3--5-5-3-------3------------------------------|
|----------------------------------------------------|
|----------------------------------------------------|
|----------------------------------------------------|
|----------------------------------------------------|

|----------------------7-7-5-5------5b6r5------------|
|--355553----577b8r7-----------7--78-----------------|
|--------42---------7--------------------------------|
|----------------------------------------------------|
|----------------------------------------------------|
|----------------------------------------------------|

|----------------------------------------------------------------|
|--355553----577b8r7---8p5-58p5-58p5-58p5-510p7-710p7-710b12r10--|
|--------42---------7-----7----7----7----7-----9-----9-----------|
|----------------------------------------------------------------|
|----------------------------------------------------------------|
|----------------------------------------------------------------|

And thats it easy peasy! just join in with the other guitar and finish this epic song :)

rate! and all comments welcome :)

Cheers for checking it out
(Visited 1 times, 1 visits today)

Comments are closed.