Words Of Love Tabs – The Mamas & The Papas Vsion 1

 WORDS OF LOVE

As recorded by The Mamas & The Papas
(From the 1966 Album THE MAMAS & THE PAPAS)

Words and Music by John Phillips

 Slowhand


Gtr I (E A D G B E) - 'John Phillips - Electric Guitar'


 Intro
 Shuffle Q=112(8=s8)
                        E          Abm/Eb       Dbm            Eb   Ab
 4/4
  Gtr I (Clean El. Gtr.)
  W          W           E  E  E E  E  E  E E    E  E  E  E  E  E E E
|----------|----------|-12-12-12-x-11-11-11-x-|--9--9--9--9--9-11---4--|
|----------|----------|-12-12-12-x-12-12-12-x-|--9--9--9--9--9-11---4--|
|----------|----------|-13-13-13-x-13-13-13-x-|--9--9--9--9--9-12---5--|
|----------|----------|-14-14-14-x-13-13-13-x-|-11-11-11-11-11-13---6--|
|----------|----------|-----------------------|------------------------|
|----------|----------|-----------------------|------------------------|


                                        1st Verse
                      Eb7                Ab7               Gb7
  +E  E E E E E E E   E E E E E E E E    E E E E E E E E   E E E E E E E E
|-(4)-4-4-x-4-4-4-x-|-----------------||-4-4-4-x-4-4-4-x-|-2-2-2-x-2-2-2-x--|
|-(4)-4-4-x-4-4-4-x-|-4-4-4-x-4-4-4-x-||-4-4-4-x-4-4-4-x-|-2-2-2-x-2-2-2-x--|
|-(5)-5-5-x-5-5-5-x-|-6-6-6-x-6-6-6-x-||-5-5-5-x-5-5-5-x-|-3-3-3-x-3-3-3-x--|
|-(6)-6-6-x-6-6-6-x-|-5-5-5-x-5-5-5-x-||-4-4-4-x-4-4-4-x-|-2-2-2-x-2-2-2-x--|
|-------------------|-6-6-6-x-6-6-6-x-||-6-6-6-x-6-6-6-x-|-4-4-4-x-4-4-4-x--|
|-------------------|-----------------||-4-4-4-x-4-4-4-x-|-2-2-2-x-2-2-2-x--|


  Cb7               Bb7     Eb7       Ab7               Gb7
  E E E E E E E E   E E E E E E E E   E E E E E E E E   E E E E E E E E
|-7-7-7-x-7-7-7-x-|-6-6-6-x---------|-4-4-4-x-4-4-4-x-|-2-2-2-x-2-2-2-x--|
|-7-7-7-x-7-7-7-x-|-6-6-6-x-4-4-4-x-|-4-4-4-x-4-4-4-x-|-2-2-2-x-2-2-2-x--|
|-8-8-8-x-8-8-8-x-|-7-7-7-x-6-6-6-x-|-5-5-5-x-5-5-5-x-|-3-3-3-x-3-3-3-x--|
|-7-7-7-x-7-7-7-x-|-6-6-6-x-5-5-5-x-|-4-4-4-x-4-4-4-x-|-2-2-2-x-2-2-2-x--|
|-9-9-9-x-9-9-9-x-|-8-8-8-x-6-6-6-x-|-6-6-6-x-6-6-6-x-|-4-4-4-x-4-4-4-x--|
|-7-7-7-x-7-7-7-x-|-6-6-6-x---------|-4-4-4-x-4-4-4-x-|-2-2-2-x-2-2-2-x--|


  Cb7               Bb7               Ab7               Gb7
  E E E E E E E E   E E E E E E E E   E E E E E E E E   E E E E E E E E
|-7-7-7-x-7-7-7-x-|-6-6-6-x-6-6-6-x-|-4-4-4-x-4-4-4-x-|-2-2-2-x-2-2-2-x--|
|-7-7-7-x-7-7-7-x-|-6-6-6-x-6-6-6-x-|-4-4-4-x-4-4-4-x-|-2-2-2-x-2-2-2-x--|
|-8-8-8-x-8-8-8-x-|-7-7-7-x-7-7-7-x-|-5-5-5-x-5-5-5-x-|-3-3-3-x-3-3-3-x--|
|-7-7-7-x-7-7-7-x-|-6-6-6-x-6-6-6-x-|-4-4-4-x-4-4-4-x-|-2-2-2-x-2-2-2-x--|
|-9-9-9-x-9-9-9-x-|-8-8-8-x-8-8-8-x-|-6-6-6-x-6-6-6-x-|-4-4-4-x-4-4-4-x--|
|-7-7-7-x-7-7-7-x-|-6-6-6-x-6-6-6-x-|-4-4-4-x-4-4-4-x-|-2-2-2-x-2-2-2-x--|


  Cb7               Bb7     A7       Ab7              Gb7
  E E E E E E E E   E E E E E E Q    E E E E E E Q    E E E E E E Q
|-7-7-7-x-7-7-7-x-|-6-6-6-6-5------|-4-4-4-4-4------|-2-2-2-2-2-------|
|-7-7-7-x-7-7-7-x-|-6-6-6-6-5------|-4-4-4-4-4------|-2-2-2-2-2-------|
|-8-8-8-x-8-8-8-x-|-7-7-7-7-6------|-5-5-5-5-5------|-3-3-3-3-3-------|
|-7-7-7-x-7-7-7-x-|-6-6-6-6-5------|-4-4-4-4-4------|-2-2-2-2-2-------|
|-9-9-9-x-9-9-9-x-|-8-8-8-8-7------|-6-6-6-6-6------|-4-4-4-4-4-------|
|-7-7-7-x-7-7-7-x-|-6-6-6-6-5------|-4-4-4-4-4------|-2-2-2-2-2-------|


                                    Bridge
                                  Straight Q=112
  E7               Eb7               Fm              Bbm
  E E E E E E Q    E E E E E E Q     Q  E E E Q  E   Q  E E E Q  E
|----------------|----------------||-1--1-1-1-1--1-|-1--1-1-1-1--1--|
|-5-5-5-5-5------|-4-4-4-4-4------||-1--1-1-1-1--1-|-2--2-2-2-2--2--|
|-7-7-7-7-7------|-6-6-6-6-6------||-1--1-1-1-1--1-|-3--3-3-3-3--3--|
|-6-6-6-6-6------|-5-5-5-5-5------||-3--3-3-3-3--3-|-3--3-3-3-3--3--|
|-7-7-7-7-7------|-6-6-6-6-6------||-3--3-3-3-3--3-|-1--1-1-1-1--1--|
|----------------|----------------||-1--1-1-1-1--1-|----------------|


                                Shuffle Q=112(8=s8)
  Gb              Eb7             Ab7             Gb7
  Q  E E

Comments are closed.