World So Cold Tabs – Ill Nino

 Intro

-------------------------------------------------------------|
-------------------------------------------------------------|
----------------7-----------------------------8-----8/5------|
-0-----------------------------0-----------------------------|
-0---0--0-0--0--5---0--0-0--0--0---0--0-0--0--6--0--6/3------|
-0---0--0-0--0------0--0-0--0--0---0--0-0--0-----0-----------|    X4


-------------------------------------------------------------|
-------------------------------------------------------------|
-------------------------------------------------------------|
-0-0----x-0-0-----x-0-0-----x-0-0-0--------------------------|
-0-0----x-0-0-----x-0-0-----x-0-0-0--------------------------|
-0-0----x-0-0-----x-0-0-----x-0-0-0--------------------------|    X4

Verse

-------------------------------------------------------------|
-------------------------------------------------------------|
-------------------------------------------------------------|
-------------------------------------------------------------|
-0-0-0-0-0---0-0-0-0-0--------1-1--1-1-----------------------|
-0-0-0-0-0---0-0-0-0-0--------1-1--1-1-----------------------|    X3

-------------------------------------------------------------|
-------------------------------------------------------------|
-15-15-15-15-15-15-15-15-14-14-14-14-14-14-14-14-------------|
-12-12-12-12-12-12-12-12-11-11-11-11-11-11-11-11-------------|
-------------------------------------------------------------|
-------------------------------------------------------------|


Chorus

-------------------------------------------------------------|
-3-----------------------------------------------------------|
-2-----------------------------------------------------------|
-0----3----7----8-8-8-8-7-7-7--------------------------------|
-0----3----7----8-8-8-8-7-7-7--------------------------------|
-0----3----7----8-8-8-8-7-7-7--------------------------------|    X2

Comments are closed.