Yellow Light Tabs by Of Monsters And Men V2

 -----------------------------------------------------------------------------
                         YELLOW LIGHT - Of Monsters and Men
-----------------------------------------------------------------------------
: PSP-
TxTPereira

Capo on the 2nd fret,
You will use these chords for the whole song>
Fmaj7 Am C Em at the slow intro
Fmaj7 Am7 C Cmaj7 picked slowly (Tabs below)

Fmaj7                        Am           C                           Em
I'm looking for a place to start, but everything feels so different now.

Fmaj7                    Am                C               Em
Just grab a hold of my hand, I will lead you through this wonderland.

Famj7            Am          C                  Em
Water up to my knees , but sharks are swimming in the sea.

Fmaj7                   Am                C         Em
Just follow my yellow light, and ignore all those big warning signs.



Then it goes like this, i have not tabbed exactly as it is, you should do the way 
you can do better, don't really botter trying to imitate exactly like the song.
   Fmaj7              Am             C                  Cmaj7
e|--------------------------------------------------------------------------|
B|---------1---------------1-----------------1----------------0-------------|
G|----2------2----2----2-----2------2----0-----0---0----0--------0-----0----|
D|-3-----3-----3---------2-------2---------2-----2--------2---------2-------|
A|-------------------0-----0-----0-----3-----3--------3-------3--------3----|
E|--------------------------------------------------------------------------|

Somewhere deep in the dark
A howling beast hears us talk.
I dare you to close your eyes
And see all the colors in disguise.
Running into the night,
The earth is shaking and I see a light.
The light is blinding my eyes
As the soft walls eat us alive.

------------------------------------------------------------//

Keyboard little thing>

Right after the first part the keyboard plays that little phrase:
(Not relative to capo)
e|--9----7--------------------------|---------------------------------------|
B|------------7-----10----9-----7---|--5------------------------------------|
G|----------------------------------|-------7----6~-------------------------|
D|----------------------------------|---------------------------------------|
A|----------------------------------|---------------------------------------|
E|----------------------------------|---------------------------------------|

And repeats this through the whole song:
e|------------------------------|-------------------------------------------|
B|--10---10---10---7---10-------|--10---10---10---7---5---------------------|
G|--------------------------7---|-------------------------7-----------------|
D|------------------------------|-------------------------------------------|
A|------------------------------|-------------------------------------------|
E|------------------------------|-------------------------------------------|

Good playing and singing!!

Comments are closed.