You Let A Good Man Go Tabs – Peer Günt

 Main Riff:
e:---------------------------------------------------------------------------|
B:-----8--7----5~------------------------------------------------------------|
G:-----7--7----5~------------------------------------------------------------|
D:------------------7--5-----------------------------------------------------|
A:--0----------------------7--5----------------------------------------------|
E:-------------------------------8--5----------------------------------------|


Bridge1:
e:---------------------------------------------------------------------------|
B:---------------------------------------------------------------------------|
G:-5--5--5--5--5----5--5--5--5-----------------------------------------------|
D:-4--4--4--4--4----4--4--4--4-----------------------------------------------|
A:-5--5--5--5--5----5--5--5--5-----------------------------------------------|
E:---------------------------------------------------------------------------|

                                                                
Bridge2:
e:--------------------------------------------------------------|
B:--------------------------------------------------------------|
G:--7--7--7--7--7----7--7--7--7------5--5--5--5--5----5--5--5--5|
D:--6--6--6--6--6----6--6--6--6------4--4--4--4--4----4--4--4--4|
A:--7--7--7--7--7----7--7--7--7------5--5--5--5--5----5--5--5--5|
E:--------------------------------------------------------------|


Alternate version:


Main Riff:
e:---------------------------------------------------------------------------|
B:-----8--7----5~------------------------------------------------------------|
G:-----9--7----5~------------------------------------------------------------|
D:------------------7--5-----------------------------------------------------|
A:--0----------------------7--6--5-------------------------------------------|
E:----------------------------------5----------------------------------------|

Comments are closed.