Your Power chords by Billie Eilish

***Please Note: Feel free to substitute G for G6 (320000) if you prefer the voicing. Either chord is cool.***
 
[Intro - Main Acoustic Hook]
   Fmaj7             Am       Em         Fmaj7             Am    G
e|-------------------------------------|-------------------------------------|
B|--13----12----5---6\5----8---0-------|--13----12----5---6\5----3---3/5-----|
G|--14----12----5---7\5----9---0-------|--14----12----5---7\5----4---4/5-----|
D|-------------------------------------|-------------------------------------|
A|-------------------------------------|-------------------------------------|
E|-------------------------------------|-------------------------------------|   
 
   Fmaj7             Am        Em        Fmaj7           Am    G
e|-------------------------------------|-------------------------------------|
B|--13----12----5---6\5----8---0-------|--/5--5---5---3---3~---0-------------|
G|--14----12----5---7\5----9---0-------|--/5------5---4---4~---0-------------|
D|-------------------------------------|-------------------------------------|
A|-------------------------------------|-------------------------------------|
E|-------------------------------------|-----------------------3-------------|
 
[Intro - Rhythm Section]
   Fmaj7                            Am               Em
e|----0-----0-0-0-|--0-0-0---1-1-1-|0---0-----0-0-0-|0---0-----0-0-0-|
B|----1-----1-1-1-|--1-1-1---1-1-1-|0h1-1-----1-1-0-|0---0-----0-0-0-|
G|0h2-2-----2-2-2-|--2-2-2---2-2-2-|2---2-----2-2-2-|0---0-----0-0-0-|
D|3---3-----3-3-3-|--3-3-3---3-3-3-|2---2-----2-2-2-|2---2-----2-2-2-|
A|3---3-----3-3-3-|--3-3-3---3-3-3-|0---0-----2-2-2-|2---2-----2-2-2-|
E|----------------|----------------|--------------0-|0---0-----0-0-0-| 
 
[Chorus]
Fmaj7           Am         Em
    Try not to abuse your power
Fmaj7                   Am      G
    I know we didn't choose to change
Fmaj7                      Am      Em
    You might not want to lose your power
Fmaj7           Am       G
     But having it's so strange
 
[Verse 1]
         Fmaj7                               Am               Em
e|x---x-------x---|x---x-------x---|x---x-------x---|x---x-------x---|
B|x---x-----1-x-1-|x---x-----1-x---|x---x-----1-x-0-|x---x-----0-x-0-|
G|x---x-----2-x-2-|x---x-----2-x-0-|x---x-----2---0-|----------0---0-|
D|x---x-----3-x-3-|x---x-----3-x-0-|x---x-----2---2-|----------2---2-|
A|x---x-------x---|x---x-------x---|x---x-----------|----------------|
E|x---x-------x---|x---x-------x---|x---x-----------|----------------|
 
    Fmaj7                 Am             Em
She said you were a hero, you played the part
        Fmaj7                       Am                 G
But you ruined her in a year, don't act like it was hard
        Fmaj7
And you swear you didn't know (didn't know, didn't know)
         Am             Em
No wonder why you didn't ask
          Fmaj7
She was sleeping in your clothes (in your clothes)
              Am             G
But now she's got to get to class
 
[Pre-Chorus]
    N.C.
How dare you
Fmaj7            Am   Em
   And how could you
                  Fmaj7
Will you only feel bad when they find out
                         Am    G
If you could take it all back
 N.C.
Would you?
 
[Chorus]
Fmaj7           Am         Em
    Try not to abuse your power
Fmaj7                   Am      G
    I know we didn't choose to change
Fmaj7                      Am       Em
    You might not want to lose your power
Fmaj7           Am       G
     But having it's so strange
 
[Verse 2]
Fmaj7
I thought that I was special
Am           Em                 Fmaj7
You made me feel like it was my fault
                     Am         G
You were the devil, lost your appeal
        Fmaj7
Does it keep you in control (in control)
            Am              Em
For you to keep her in a cage
        Fmaj7
And you swear you didn't know (didn't know)
               Am                  G
You said you thought she was your age
 
[Pre-Chorus]
    N.C.
How dare you
Fmaj7             Am   Em
   And how could you?
                  Fmaj7                                        Am     G
Will you only feel bad if it turns out, that they kill your contract
 N.C.
Would you?
 
[Chorus]
Fmaj7           Am         Em
    Try not to abuse your power
Fmaj7                   Am        G
    I know we didn't choose to change
Fmaj7                      Am       Em
    You might not want to lose your power
Fmaj7                 Am       G
     But power isn't pain
 
[Outro - Main Acoustic Hook]
   Fmaj7             Am       Em         Fmaj7             Am    G
e|-------------------------------------|-------------------------------------|
B|--13----12----5---6\5----8---0-------|--13----12----5---6\5----3---3/5-----|
G|--14----12----5---7\5----9---0-------|--14----12----5---7\5----4---4/5-----|
D|-------------------------------------|-------------------------------------|
A|-------------------------------------|-------------------------------------|
E|-------------------------------------|-------------------------------------|   
 
   Fmaj7             Am        Em        Fmaj7           Am    G
e|-------------------------------------|-------------------------------------|
B|--13----12----5---6\5----8---0-------|--/5--5---5---3---3~---0-------------|
G|--14----12----5---7\5----9---0-------|--/5------5---4---4~---0-------------|
D|-------------------------------------|-------------------------------------|
A|-------------------------------------|-------------------------------------|
E|-------------------------------------|-----------------------3-------------|
(Visited 1 times, 1 visits today)

Comments are closed.