Month: August 2011

Apartment Chords – Young The Giant V3

hi, I have been trying to grasp the chords they're playing on this one -
even though they may play different variations of the chords as seen in the video, 
these go with the song very well

chords used:

     E A D G B e
Bm*  x 2 4 4 3 x
*    x x x x 3 2 very short
Em   0 2 2 0 0 0
**   x 2 0 x x x very short
A    x 0 2 2 2 0
***  x x x 2 2 2 very short
Bmi  7 9 9 7 7 7
Am7  x 0 2 0 1 0
Em/G 3 2 2 0 0 0
G    3 2 0 0 3 3
F#m  2 4 2 2 2 2

you can either play the opening part as chords (Bm D - Em G - A F#m7 - Bm)
or you can, like myself rather strum out individual strings to substitute
for whole chords (thus skipping transitions to D, G and F#m7) - these ar
noted below as *, ** and *** - the good thing about playing it this way is
that you can pretty much leave the fingers of your left hand (for 
right-handed players) in the position of the preceding chord - this makes
for a more consistent sound of the song, I feel. try it out both ways and you'll see.
Please note that I'm using Bm and Bm* which is the same chord only played 
at different parts of the neck.

Bm*           *    Em         **   A          ***     Bm*

Bm*           *    Em         **
After leaving      my apartment
A          ***     Bm*
I feel this        cold inside me

On my way to your apartment
I write for fear of silence
You carved a boat to sell my shadow
A             Bm*    A  A  A 
Now I walk alone

(keep playing A and gradually increase the intensity of the sound up to where they 
introduce a new set of chords)

Bm     Am7      Em/G     G

Bm            Am7              Em/G            G
I hit the sidewalk and this is how it starts
Bm            Am7                  Em/G           G
Hide in a raincoat when things are falling apart

Bm* F#m7
Bm* F#m7

Bm*           Em           A           Bm*

Bm*           *    Em         **
After leaving      my apartment
A          ***     Bm*
I hear the         coast by nightfall
So sure to keep you dreaming
You understood
Oh, I know you understood
Bm*         Em      A      Bm*   A    A    A    A
Yes sir, it shows I was no good   alright, alright

Bm            Am7              Em/G            G
I hit the sidewalk and this is how it starts
Bm            Am7                  Em/G           G
Hide in a raincoat when things are falling apart
Bm            Am7                  Em/G           G
Cause sooner or later this is bound to stop
Bm            Am7                  Em/G           G
Come on, let's savor what we're falling over

Bm            Am7                  Em/G           G (2x)

Bm*           *    Em         **   A          ***     Bm

Bm*           *    Em         **
After leaving      your apartment
A          ***     Bm
I hear the         coast...

this is pretty much most of the song, they have a bunch of guitars 
so unless you have a band, this works for the background guitar.

Freedom Is Mine Tabs by Undercode

\: slide down
/: slide up
h: hammer on
p: pull off
b: bend up to note between ()
r: release bend
~: vibrato

Eb tuning

Intro 
Guitar 1
----|-------------------------|--------------------------|
----|-------------------------|--------------------------|
----|--0---0---------0--0-----|--0--0--------0-----------|
----|----2---2---2/4--2---2/4-|----2--2--2/4---2---------|  X 2
----|----------2--------------|---------2----------3\2-0-|
----|0------------------------|0-------------------------|

Guitar 2 w/ vibrato effect                            PM-------------|
0----|--------------|----------0----|----------------|----------------|
-0---|--------------|-----------0---|----------------|----------------|
--0--|--------------|------------0--|----------------|----------------|
---2-|--------------|-------------2-|----------------|-222222222222222|
----2|--------------|--------------2|----------------|-222222222222222|
-----|0-------------|---------------|0---------------|-000000000000000|

Fig.1 (Main riff/Chorus)                         
-|--------------------------------|--------------------------------|
-|--------------------------------|--------------------------------|
-|--------------------------------|--------------------------------|
-|--------------------------------|------------------------10\9-7--|
-|-10p7-10p7---9~---10p7--10p7-9~-|-10p7--10p7---9~--10p7--10\9-7--|
-|0----------0----0---------------|0-----------0---0--------8\7-5--|

Fig. 2  (Verse)
-|----------------|----------------|----------------|----------------|
-|----------------|----------------|----------------|----------------|
-|----------------|----------------|----------------|----------------|
-|2---2---2---2-2-|2---2---2---2-2-|2---2---2---2-2-|2---2---2---2-2-|
-|2---2---2---2-2-|2---2---2---2-2-|2---2---2---2-2-|2---2---2---2-2-|
-|0---0---0---0-0-|0---0---0---0-0-|0---0---0---0-0-|0---0---0---0-0-|

-|----------------|----------------|----------------|----------------|
-|----------------|----------------|----------------|----------------|
-|2---2---2---2-2-|2---2---2---2-2-|4---4---4---4-4-I4---4---4---4-4-|
-|2---2---2---2-2-|2---2---2---2-2-|4---4---4---4-4-I4---4---4---4-4-|
-|0---0---0---0-0-I0---0---0---0-0-|2---2---2---2-2-|2---2---2---2-2-|
-|----------------|----------------|----------------|----------------|

Fig 3. (Bridge)
     PM-I     PM    PM-              PM-I         PM         PM  
-|------------------------------|----------------------------|
-|------------------------------|----------------------------|
-|------------------------------|----------------------------|
-|7/9-9-9-9\7-7-7\5-5-5-4/5-4p2-|7/9-9-9-9\7-7-7\5-5-5-4/5-2-|
-|7/9-9-9-9\7-7-7\5-5-5-4/5-4p2-|7/9-9-9-9\7-7-7\5-5-5-4/5-2-|
-|5/7-7-7-7\5-5-5\3-3-3-2/3-2p0-|5/7-7-7-7\5-5-5\3-3-3-2/3-0-|

-|------------------------------|----------------------------|
-|------------------------------|----------------------------|
-|------------------------------|--------------------------5-|
-|7/9-9-9-9\7-7-7\5-5-5-4/5-4p2-|7/9-9-9-9\7-7-7\5-5-5-4/5-5-|
-|7/9-9-9-9\7-7-7\5-5-5-4/5-4p2-|7/9-9-9-9\7-7-7\5-5-5-4/5-3-|
-|5/7-7-7-7\5-5-5\3-3-3-2/3-2p0-|5/7-7-7-7\5-5-5\3-3-3-2/3---|

Fig. 3 
 PM--------------------------------------------I
-|--------------------------|----------------------------|
-|--------------------------|--------------------0-------|
-|---2----2----2----2----2--|---4-----4-----4------4-----|
-|-4---4----4----4----4----4|--5--5-----5----5-------5---|
-|2-----2----2----2----2----|3------3-----3----3-------3-|
-|--------------------------|----------------------------|

  PM------------------------I
-|-------------------------|--------------------------------|
-|-------------------------|--0-----0-----------------------|
-|---2----2----2----2----2-|----4-----4---------------------|
-|-4--4----4----4----4----4|------------5--5/7--7-7--7/9--9-|
-|2----2----2----2----2----|3-----3--------3/5--5-5--5/7--7-|
-|-------------------------|--------------------------------|

Fig. 1 (Chorus)

 Fill.
-|--------------------------------|--------------------------|
-|--------------------------------|--------------------------|
-|9--11--12--11-9-9--11--12--11-9-|4--6--7--6-4-6--8--9--8-6-|
-|9---9---9---9-9-9---9---9---9-9-|4--4--4--4-4-6--6--6--6-6-|
-|--------------------------------|--------------------------|
-|--------------------------------|--------------------------|

Guitar solo

-|-------------------------------------------------------------------|
-|-7b(8)r(7)b(8)r(7)b(8)r(7)b(8)r(7)b(8)r(7)b(8)r(7)b(8)r(7)---5-5~--|
-|-------------------------------------------------------------------|
-|-------------------------------------------------------------------|
-|-------------------------------------------------------------------|
-|-------------------------------------------------------------------|

-|-------------------------------------------|
-|----------------------------5h7p5---5--7/8-|
-|-4-4b(5)-4~--4h5p4---4--5/7-------7--------|
-|-------------------7-----------------------|
-|-------------------------------------------|
-|-------------------------------------------|

-|-15p12--12-------12h15p12--12--------|
-|------15--15b(17)--------15--15b(17)-|
-|-------------------------------------|
-|-------------------------------------|
-|-------------------------------------|
-|-------------------------------------|

-|-12h15p12---12-------12------12----------12------12-|
-|---------15---15b(17)-15b(17)-15b(17)~----15b(17)---|
-|----------------------------------------------------|
------------------------------------------------------|
-|----------------------------------------------------|
-|----------------------------------------------------|

-|-17p12---17p12---17p12-15p12---15p12---15-|
-|-------15-----15------------15-------15---|
-|------------------------------------------|
-|------------------------------------------|
-|------------------------------------------|
-|------------------------------------------|

-|-14h15p14p12-14p12--12--------------------------------------|
-|------------------15--13h15p13p12-13p12-------15------------|
-|---------------------------------------14b(16)--(16)r14--12-|
-|------------------------------------------------------------|
-|------------------------------------------------------------|
-|------------------------------------------------------------|

-|-------------------------------------------|
-|---12--------------------------------------|
-|-14--14-12-14p12---------------------------|
-|----------------14-12-14p12----------------|
-|---------------------------14-12-14p12\10--|
-|-------------------------------------------|

-|---------------------------15---------------|
-|-----------------------------15-------------|
-|------------12------14b(16)----(16)r14--12~-|
-|-------12-----14p12-------------------------|
-|-12/14---14---------------------------------|
-|--------------------------------------------|

Fig. 4 part 1
Guitar 1
Em
-|-19-15-----19-15-----191-5----19-15-----|
-|------17--------17--------17-------17---|
-|--------16--------16--------16-------16-|  X 4
-|----------------------------------------|
-|----------------------------------------|
-|----------------------------------------|

Guitar 2
-|-15-12----15-12----15-12----15-12-----|
-|------12-------12-------12-------12---|
-|--------12-------12-------12-------12-| X 4
-|--------------------------------------|
-|--------------------------------------|
-|--------------------------------------|

Fig. 4 part 2
Guitar 1
Am
-|-12-8---12-8----12-8---12-8-----|
-|-----10-----10------10-----10---|
-|-------9------9-------9------9--| X 2
-|--------------------------------|
-|--------------------------------|
-|--------------------------------|

Guitar 2

-|-8-5-----8-5-----8-5-----8-5-----|
-|-----5-------5-------5-------5---|
-|-------5-------5-------5-------5-|  X 2
-|---------------------------------|
-|---------------------------------|
-|---------------------------------|

Fig. 4 part 3
Guitar 1
Hm
-|-14-10----14-10----14-10----14-10-----|
-|------12-------12-------12-------12---|
-|--------11-------11-------11-------11-| X 2
-|--------------------------------------|
-|--------------------------------------|
-|--------------------------------------|

Gutar 2

-|-10-7-----10-7-----10-7-----10-7-----|
-|------7--------7--------7--------7---|
-|--------7--------7--------7--------7-| X 2
-|-------------------------------------|
-|-------------------------------------|
-|-------------------------------------|

-|-14--14----15\12~-------------|
-|------------------------------|
-|-11--11----12\9~--------------|
-|------------------------------|
-|------------------------------|
-|------------------------------|

Fig 2 (Verse)
Fig 3 (Bridge)
Fig 1 (Chorus) X 2

I Wont Back Down Chords – Tom Petty And The Heartbreakers

       Em    D    G          Em    D    G
Well I won't back down, no I won't back down
        Em       D         C              
You can stand me up at the gates of hell
      Em    D    G
But I won't back down 

      Em    D  G                Em     D   G
Gonna stand my ground, won't be turned around
         Em        D          C            
And I'll keep this world from draggin' me down
      Em    D  G            Em    D    G 
Gonna stand my ground and I won't back down  

C G  D     C              G        D
Hey  baby, there ain't no easy way out
C G  D      Em    D  G            Em    D    G
hey  I will stand my ground and I won't back down  

       Em   D      G           Em   D   G
Well I know what's right I got just one life
     Em         D       C
In a world that keep on pushin' me around 
         Em    D  G            Em    D    G
But I'll stand my ground and I won't back down

C G  D     C              G        D
Hey  baby, there ain't no easy way out
C G  D      Em    D  G            Em    D    G
hey  I will stand my ground and I won't back down  

set8

Love Is Hell tabs by Theory Of A Deadman

Tuning: 1/2 step down

Main Chord Progression and Chorus

        Em        G        A
---------0--------3--------0-----------------------|
---------0--------3--------2-----------------------|
---------0--------0--------2-----------------------|
---------2--------0--------2--------2--------------|
---------2--------X--------0--------0--------------|
---------0--------3--------X-----------3-----------|

Bridge

        Em        G        A        C
---------0--------3--------0--------0---------------|
---------0--------3--------2--------1---------------|
---------0--------0--------2--------0---------------|
---------2--------0--------2--------2---------------|
---------2--------X--------0--------3---------------|
---------0--------3--------X--------0---------------|

Easy To Love You Acoustic Chords – Theory Of A Deadman

Tuning: Standard

Chords:

   Dsus2  Asus2  Bm  Esus4/B  Aadd9      G   E
e|-0------0------2-----------------------3---0
b|-3------0------3-----0--------0--------3---0
g|-2------2------4-----2--------2--------0---1
d|-0------2------4-----2--------2--------0---2
a|-0------0------2-----2--------4--------2---2
E|---------------------------------------3---0

Intro

   Dsus2    Bm
e|-0-----0--2----------|
b|-3-----3--3----------|
g|-2-----2--4----------|
d|-0-----0--4----------|
a|----4-----2~~~--2h4--|
E|----------X----------|

Asus2
I remember all the summer days
Drinking wine in the sunshine
          Dsus2
I hope it never leaves
Asus2
And I remember all the summer nights
Staring at you in the moonlight
           Dsus2
I hope you never leave
Cause baby you're so good to me
Bm       Dsus2               Asus2 Esus4/B Aadd9  Dsus2
You have all that I ever need.

             Asus2
It's easy to love you
           Dsus2
So easy to love you
                   Bm
You know it's true
                        Dsus2
The best part of being with you,
                     Bm
To know you're with me
                     E
It's not so hard to say
             Dsus2
It's easy to love you

Asus2
I remember all those winter days
Frozen in the cold tryin' to get you home
            Dsus2
Should I be moving in?
Asus2
Remember spending all those winter nights
Stayin' inside by the warm fire
       Dsus2
Ya you gotta know, I can never let you go
Bm       Dsus2               Asus2 Esus4/B Aadd9  Dsus2      
You and I have the rest of our lives to see

             Asus2
It's easy to love you
           Dsus2
So easy to love you
                   Bm
You know it's true
                        Dsus2
The best part of being with you,
                     Bm
To know you're with me
                     E
It's not so hard to say
             Dsus2
It's easy to love you

G
Can anybody else see it?
                                   Dsus2
Oh, can anybody else see what I do?
G
Can anybody else feel it?
                     Dsus2          E
Oh, can anybody else feel the way I do?
Now I'm with you

SOLO
Asus2  Dsus2  Bm  E

Asus2
Hard to forget all the moments when
We'd be sitting there hoping it would never end
              Dsus2
Cause this is meant to be
Baby, will you marry me?

             Asus2
It's easy to love you
           Dsus2
So easy to love you
                   Bm
You know it's true
                        Dsus2
The best part of being with you,
                     Bm
To know you're with me
                     E
It's not so hard to say
             Asus2
It's easy to love you
           Dsus2
So easy to love you
                   Bm
You know it's true
                        Dsus2
The best part of being with you,
                Intro (Dsus2 - 4 - Bm)
You're easy to love

Better Or Worse Chords – Theory Of A Deadman

Tuning: Half-step down

Chord chart (maybe those aren't the good names for the chords...)

   Em/D   Bb  C#add11
e|--3-----------3---------------------------|
b|--3-----------3---------------------------|
g|--0-----0-----2---------------------------|
d|--2-----1-----0---------------------------|
a|--2-----2-----0---------------------------|
E|--0-----0-----2---------------------------|

   Dsus2
e|-----0-------0-------0-------0--|
b|-3-----3h2-----2h0-----0--------|
g|-------------------------2------|
d|---0-------0-------0-------0----|
a|--------------------------------|
E|--------------------------------|

D
Watching you walk out the door
  A
I think I've seen it all before
      G
But this time's different

This time's not the same
D
All those memories of us are gone
 A
How could all this be wrong?
G
This time's different

You won't be back again (iuuuhhhhhh)
Em/D
Those war winning loves they fade so fast
Bb
I hoped this one was meant to last
G			 stop
Maybe just maybe, maybe, baby

D
Can't leave love in the Sun like that
A
A heart may die it's a matter of fact
G
And it's up to us

To rememor these words baby
D (intro 2nd guitar)
Can't keep that anger trapped inside
A 					  G
We gotta let it go to keep our love alive maybe
               C#add11  Em/D
We rememor these words for better or worse

(Intro)

D
We can only go back in time
A
Maybe we can see the reason why
G
This time's different

This time's not the same
D
All those awful things I shouldn't have said
A
Why can we just forgive and forget
G
Thinking this time's different

You won't be back again
Em/D
Those war winning loves they fade so fast
Bb
I hoped this one was meant to last
G			 stop
Maybe just maybe, maybe, baby

D
Can't leave love in the Sun like that
A
A heart may die it's a matter of fact
G
And it's up to us

To rememor these words baby
D
We can't keep that anger trapped inside
A					  G
We gotta let it go to keep our love alive baby
               C#add11  Em/D
We rememor these words for better or worse

A					    
From the moment you come I has to feel your touch
Em/D
You already broke my heart
                         G    D
One reason is not enough baby please

Solo
D   A   G

Em/D
Those war winning loves they fade so fast
Bb
I hoped this one was meant to last
G
Maybe just maybe, maybe, baby

(Soft strum)
D
Can't leave love in the Sun like that
A
A heart may die it's a matter of fact
G
And it's up to us
       G G      G G    G
To memor these words baby
D
Can't keep that anger trapped inside
A					G
We gotta let it go to keep our love alive maybe
               C#add11  Em/D
Memor these words for better or worse
		D   A   G
For better our worse
               C#add11  Em/D (let ring)
Memor these words for better or worse

Mrs Robinson Chords – Simon And Garfunkel V7

E7

D           G           C           Am
Do do do do do do do do do do do do do

E7        

D             G        Em
And here's to you, Mrs Robinson
G               Em                 C
Jesus loves you more than you will know.
          D
Whoa whoa whoa
              G           Em
God bless you please, Mrs Robinson
G              Em                  C
Heaven holds a place for those who pray 
        Am
Hey hey hey 
        E
Hey hey hey 

E7
We'd like to know a little more about you for our files 
     A7
We'd like to help you learn to help yourself 
D7              G               C           Am
Look around you all you see are sympathetic eyes 
E                                           D
Stroll around the grounds until you feel at home 

E
Hide it in a hiding place where no one ever goes 
A   
Put in your pantry with your cupcakes 
D7            G               C            Am
It's a little secret just the Robinson's affair 
E                                          D
Most of all you've got to hide it from the kids 

D          G        Em
Koo koo kachoo, Mrs Robinson
G               Em                 C
Jesus loves you more than you will know.
          D
Whoa whoa whoa
              G           Em
God bless you please, Mrs Robinson
G              Em                  C
Heaven holds a place for those who pray 
        Am
Hey hey hey 
        E
Hey hey hey 

E7
Sitting on a sofa on a Sunday afternoon 

A7
Going to a candidates debate 
D7             G              C                  Am
Laugh about it shout about it when you've got to choose 
E                               D
Every way you look at it you'll lose 

               G          Em 
Where have you gone Joe DiMaggio
    G                Em             C
The nation turns its lonely eyes to you 
          D
Whoa whoa whoa
                G       Em
What's that you say Mrs Robinson 
G               Em             C
Joltin' Joe has left and gone away 
        Am
Hey hey hey 
        E7
Hey hey hey 

* Alternate:

Capo II

E7 = D7
D  = C
G  = F
C  = Bb
Am = Gm
Em = Dm
E  = D
A7 = G7
D7 = C7

Set8

Set Fire To The Rain Chords – Adele V8

Tabbed by: lgabrielleml
Email:

Tuning:  5th fret

Chords throughout: Am, C, G, F

        Am                 C               G             F
e|--0-------0-------0-------0-------3-------3-------1-------1--------|
B|------1-------1-------1-------1-------0-------0-------1-------1----|
G|----2---2---2---2---0---0---0---0---0---0---0---0---2---2---2---2--|
D|-------------------------------------------------------------------|
A|--0---------------3------------------------------------------------|
E|----------------------------------3---------------1----------------|

Thats basically it through out the song. just strum the pattern: DDDDDDDD during the
refrain and go wild in the chorus :D peace (V)

Verse:
          Am      C
I let it fall, my heart,
           G                    F
And as it fell, you rose to claim it,
        Am            C
It was dark and I was over,
           G                     F
Until you kissed my lips and you saved me,
    Am             C
My hands, they're strong,
          G                F
but my knees were far too weak,
     Am           C
To stand in your arms
          G               F
without falling to your feet,

Refrain:
               F                 Am
But there's a side to you that I never knew, never knew,
          F                          Am
All the things you'd say, they were never true, never true,
         F                            G
And the games you'd play, you would always win, always win,

Chorus:
           Am
But I set fire to the rain,
            G
Watched it pour as I touched your face,
           F
Well, it burned while I cried,
                                      Dm          G
'Cause I heard it screaming out your name, your name,

Verse:
      Am       C
When lay with you
          G           F
I could stay there, close my eyes,
          Am     C
feel you here forever,
        G                        F
You and me together, nothing is better,

Refrain:
               F                 Am
But there's a side to you that I never knew, never knew,
          F                          Am
All the things you'd say, they were never true, never true,
         F                            G
And the games you'd play, you would always win, always win,

Chorus:
           Am
But I set fire to the rain,
            G
Watched it pour as I touched your face,
           F
Well, it burned while I cried,
                                      Dm          G
'Cause I heard it screaming out your name, your name,
       Am
I set fire to the rain,
            G
And I threw us into the flames,
         F
Well, I felt something die,
                                      Dm             G
'Cause I knew that that was the last time, the last time,

Bridge:
          Am                C
Sometimes I wake up by the door,
               G                        F
And heard you calling, must be waiting for you,
      Am                     C
Even now when we're already over,
         G                        F
I can't help myself from looking for you,

Chorus:
           Am
But I set fire to the rain,
            G
Watched it pour as I touched your face,
           F
Well, it burned while I cried,
                                      Dm          G
'Cause I heard it screaming out your name, your name,
       Am
I set fire to the rain,
            G
And I threw us into the flames,
         F
Well, I felt something die,
                                      Dm             G
'Cause I knew that that was the last time, the last time,

Outro:
[Chords Chorus]
Oh, no,
Let it burn, oh,
Let it burn,
Let it burn.

************************************

| /   slide up
| \   slide down
| h   hammer-on
| p   pull-off
| ~   vibrato
| +   harmonic
| x   Mute note
| b   Bend
| pb  Pre-bend
| br  Bend release
| pbr Pre-bend release
| brb Bend release bend

************************************

Honky Tonk Woman Chords – Rolling Stones V2

  A                                   D
I met a gin soaked, bar-room queen in Memphis,
    A                B7             E
She tried to take me upstairs for a ride.
    A                                D
She had to heave me right across her shoulder
        A                  E                A
cause I just can t seem to drink you off my mind.

         A      E       A
It s the hooooonky tonk women
A             E                    A
Gimme, gimme, gimme the honky tonk blues.

  A                           D
I laid a divorcee in New York City,
  A             B7             E
I had to put up some kind of a fight.
    A                             D
The lady then she covered me with roses,
    A                E                A
She blew my nose and then she blew my mind.

         A      E       A
It s the hooooonky tonk women
A             E                    A
Gimme, gimme, gimme the honky tonk blues.

                A      E       A
(Yeah) It s the hooooonky tonk women
A             E                    A
Gimme, gimme, gimme the honky tonk blues.

                A      E       A
(Yeah) It s the hooooonky tonk women
A             E                    A
Gimme, gimme, gimme the honky tonk blues.

* Alternate:

Capo II

A  = G
D  = C
B7 = A7
E  = D

Set8

Around And Around Chords – Rolling Stones

                     A
I said the joint was rocking 

Goin' round and round 
                    D
Yeah, reeling and a rocking 
             A
What a crazy sound 
                       E
And they never stopped rocking 
 E7                A
'Til the moon went down 

                  A
Well it sounds so sweet 

I had to take me chance 
               D
Rose out of my seat 
              A
I just had to dance 
                  E
Started moving my feet 
E7                  A
Whoa to clapping my hands 

                       A
I said the joint was a rocking 

Goin' round and round
                    D
Yeah, reeling and a rocking 
             A
What a crazy sound 
                       E
And they never stopped rocking 
 E7                A
'Til the moon went down 

break

A D A E E7 A

                 A
Yeah at twelve o'clock 

Yeah the place was packed 
                D
Front doors was locked 
                   A
Yeah the place was packed 
                    E
And when the police knocked 
E7               A
Those doors flew back 

                 A
But they kept on rocking 

Goin' round and round
                    D
Yeah, reeling and a rocking 
             A
What a crazy sound 
                       E
And they never stopped rocking 
 E7                A
'Til the moon went down 

                 A
And they kept on rocking 

Goin' round and round
                    D
Yeah, reeling and a rocking 
             A
What a crazy sound 
                       E
And they never stopped rocking 
 E7                A
'Til the moon went down 

                        A
Well the joint stayed a rocking 

Goin' round and round
                    D
Yeah, reeling and a rocking 
             A
What a crazy sound 
                       E
And they never stopped rocking 
 E7                A
'Til the moon went down 

A D A E E7 A

Set8

Mandolin Wind Chords – Rod Stewart V2

Capo II

A G Em A  2x

G D

         G                         D
When the rain came I thought you d leave
        G                           D
cause I knew how much you loved the sun
        G                       D
But you chose to stay, stay and keep me warm
            G                        D
Through the darkest nights I ve ever known
       A                      G
If the mandolin wind couldn t change a thing
              Em   A
Then I know I love ya

G D

        G                   D
Oh, the snow fell without a break
G                          D
Buffalo died in the frozen fields you know
            G                        D
Through the coldest winter in almost fourteen years
  G                           D
I couldn t believe you kept a smile
          A                               A
Now I can rest assured knowing that we ve seen the worst
             Em   A
And I know I love ya

G D

G                           D
Oh, I never was good with romantic words
       G                          D
So the next few lines come really hard
G                             D
Don t have much but what I ve got is yours
  G                          D
Except of course my steel guitar
            A                          
Ha, cause I know you don t play
         G
But I ll teach you one day
          Em   A
Because I love ya

G D 4x
A G Em A x2

G D

G                     D
I recall the night we knelt and prayed
G                       D
Noticing, your face was thin and pale
  G                        D
I found it hard to hide my tears
  G                        D
I felt ashamed, I felt I d let you down
   A                      G   
No mandolin wind couldn t change a thing
         Em                 A
Couldn t change a thing no, no

A G Em A

A               G          Em             A
La dadada la da la dadada  La dadada la dada  

A G Em A

    A                        G
The coldest winter in almost fourteen years
      Em                       A
Could never, never change your mind, yeh

      G
And I love ya
                 A
Yes indeed and I love ya
      A
And I love ya
        G
Lordy I love ya

      A
And I love ya
         G
Darlin I love ya. . .

Set8

Learning To Fly Chords – Pink Floyd V2

G  G Em

G
Into the distance, a ribbon of black;
Em                                      D/G
Stretched to the point of no turning back
  G
A flight of fancy on a windswept field;
Em                           D/G
Standing alone my senses reel
  G
A fatal attraction is holding me fast;
Em                                      D/C
How can I escape this irresistible grasp?

C                           Am
Can't keep my eyes from the circling skies;
F
Tongue-tied and twisted,
        C           D       G
Just an earth-bound misfit, I

G  G Em

G
Ice is forming on the tips of my wings;
Em                                                  D/G
Unheeded warnings, I thought I thought of everything
G        
No navigator to find my way home;
Em                                D/C
Unladen, empty and turned to stone

  C                      Am
A soul in tension that's learning to fly;
F                      C
Condition grounded but determined to try
C                           Am
Can't keep my eyes from the circling skies;
F
Tongue-tied and twisted,
        C           D       G
Just an earth-bound misfit, I

G
Above the planet on a wing and a prayer;
Em                                            D/G
My grubby halo, a vapor trail in the empty air
G               
Across the clouds I see my shadow fly;
Em                                  D/G
Out of the corner of my watering eye

  G
A dream unthreatened by the morning light;
Em                                                      D/C
Could blow this soul right through the roof of the night

        C                  Am
There's no sensation to compare with this;
F                      C
Suspended animation, a state of bliss
C                           Am
Can't keep my eyes from the circling skies;
F
Tongue-tied and twisted,
        C           D       G
Just an earth-bound misfit, I

G  G Em  3x

* Alternate:

Capo III

G  = E
Em = C#m
D  = B
C  = A
Am = F#m
F  = D

Set8

Helpless Chords – Neil Young V3

D  A  G    D  A  G

D          A               G
There is a town in north Ontario,
D          A                 G
With dream comfort memory to spare,
D         A            G
and in my mind I still need a place to go,
D      A            G
All my changes were there,

D          A         G
Blue, blue windows behind the stars,
D      A    G
Yellow moon on the rise,
D         A       G
Big birds flying across the sky,
D        A          G
Throwing shadows on our eyes.

D         A             G
Helpless, helpless, hel helpless
D    A       G
Baby can you hear me now?
D              A          G
The chains are locked and tied across the door,
D     A         G 
Baby, sing with me some how.

D  A  G    D  A  G

D          A         G
Blue, blue windows behind the stars,
D      A    G
Yellow moon on the rise,
D         A       G
Big birds flying across the sky,
D        A          G
Throwing shadows on our eyes.

D         A             G
Helpless, helpless, hel helpless 3x

* Alternate:

Capo II

D = C
A = G
G = F

Set8

Heart Of Gold Chords – Neil Young V2

Em  D  Em

Em        C     D         G   Em
I want to live, I want to give 
            C           D        G    Em
I've been a miner for a heart of gold 
             C         D       G    Em
It's these expressions I never give 
                             G
That keep me searchin' for a heart of gold 
C               G   Em
And I'm gettin' old 
                        G
Keeps me searchin for a heart of gold 
C               G
And I'm gettin' old 

Em           C          D            G     Em
I've been to Hollywood, I've been to Redwood 
              C           D        G   Em
I crossed the ocean for a heart of gold 
             C        D           G       Em
I've been in my mind, it's such a fine line 
                              G
That keeps me searching for a heart of gold 
C               G   Em
And I'm getting old 
                        G
Keeps me searchin for a heart of gold 
C               G
And I'm gettin' old 

Em                     D        Em
Keep me searchin for a heart of gold 
                             D      Em
You keep me searchin and I'm growin old 
                       D        Em
Keep me searchin for a heart of gold 
                        G                 C   G
I've been a miner for a heart of gold...

Set8

Harvest Moon Chords – Neil Young V2

Capo II

C Am C/Am  4x

F
Come a little bit closer
                    C   C Am C/Am (2x)
Hear what I have to say
F
Just like children sleepin
                           C  C Am C/Am
We could dream this night away.
F
But there s a full moon risin
                       C   C Am C/Am
Let s go dancin in the light
F
We know where the music s playin
                          C   C Am C/Am
Let s go out and feel the night.

F                              G
Because I m still in love with you
                         Dm
I want to see you dance again
F                              G
Because I m still in love with you
                C   C Am C/Am
On this harvest moon.

F
When we were strangers
                    C  C Am C/Am
I watched you from afar
F
When we were lovers
                        C   C Am C/Am
I loved you with all my heart.
F
But now its gettin late
                        C   C Am C/Am
And the moon is climbin high
F
I want to celebrate
                      C  C Am C/Am
See it shinin in your eye.

F                              G
Because I m still in love with you
                         Dm
I want to see you dance again
F                              G
Because I m still in love with you
                C   C Am C/Am  C Am C/Am
On this harvest moon.

Set8

Harvest Moon chords  (ver. 2)
Neil Young

D Bm  D  4x

G
Come a little bit closer
                    D   Dmaj7
Hear what I have to say
G
Just like children sleepin
                           D  Dmaj7
We could dream this night away.
G
But there s a full moon risin
                       D   Dmaj7
Let s go dancin in the light
G
We know where the music s playin
                          D   Dmaj7
Let s go out and feel the night.

G                              A
Because I m still in love with you
                         Em
I want to see you dance again
G                              A
Because I m still in love with you
                D   Dmaj7
On this harvest moon.

G
When we were strangers
                    D  Dmaj7
I watched you from afar
G
When we were lovers
                        D   Dmaj7
I loved you with all my heart.
G
But now its gettin late
                        D   Dmaj7
And the moon is climbin high
G
I want to celebrate
                      D  Dmaj7
See it shinin in your eye.

G                              A
Because I m still in love with you
                         Em
I want to see you dance again
G                              A
Because I m still in love with you
                D   Dmaj7 D Dmaj7 D Dmaj7
On this harvest moon.

Set8

Home Tabs by Mumford And Sons

Now the main progression goes like this (for the verses):
      Bm                    G                   D
D |--------------------------------------------------------------------------|
A |--------------------------------------------------------------------------|
F#|----0---0---0---0---0---5----5----5----5----0----0----0----0----0----0----|
D |--------------------------------------------------------------------------|
A |--2----2----2----2--------------------------------------------------------|
D |----------------------5----5----5----5----0----0----0----0----0----0------|
         A
D  ----------------------------------------|
A  ----------------------------------------|
F# -----7----7-----------------------------|
D  ----------------------------------------|
A  ----------------------------------------|
D  ---7----7-------------------------------|

Note:
Sometimes, Marcus does a slightly different picking pattern.

He will add in the Middle D string to his plucks.
So it would change the tab to:
         Bm             G            D       A
D |-----------------------------------------------------------|
A |-----------------------------------------------------------|
F#|---------0-----------5---------0------------7--------------|
D |---------4-----------0---------0------------0--------------|
A |-------2---------------------------------------------------|
D |-------------------5---------0------------7----------------|

He does it at random points in the song to add sound, so you go with what you feel on 
where it should go.

The verses remain the same throughout.

The Chorus is almost the same, except you add a chord shape before the G to replace Bm 
on the first measure. This chord shape is below.

D |-----------|
A |-----------|
F#|-------3---|
D |-----------|         This chord shape ONLY replaces the Bm from the main
A |-----------|         progression on the FIRST measure of the chorus.
D |-----4-----|         The second measure it goes back to Bm.

The song thus far repeats until the Bridge.

The bridge is fairly simple in the live recordings, though it is different from the demo 
recordings. I have not been able to sample it from the demos, only the live show.

Bridge

D |--------------------------------------------------------------------|
A |--------------------------------------------------------------------|
F#|----7---7---7---7---7---7---7---7---5---5---5---5---5---5---5---5---|
D |--------------------------------------------------------------------|
A |--------------------------------------------------------------------|
D |--7---7---7---7---7---7---7---7---5---5---5---5---5---5---5---5-----|

D  ------------------------------------------------------------------|
A  ------------------------------------------------------------------|
F# ---0---0---0---0---0---0---0---0---0---0---0---0---0---0---0---0--|
D  ------------------------------------------------------------------|
A  ------------------------------------------------------------------|
D  -0---0---0---0---0---0---0---0---0---0---0---0---0---0---0---0----|

Get it? You do eight measures of A, eight of G, and sixteen of D.

End on an Open D chord :)

Hope it helped.

Keep Holding On Chords – Glee Cast

(intro) G D Em C (clean electric)

(verse 1)

G          D
You're not alone
            Em
Together we stand
              C
I'll be by your side
                          G
You know I'll take your hand
             D
When it gets cold
                       Em
And it feels like the end
            C                     G
Theres no place to go you know I wont give in
 D              Em         C
  No I wont give in

(chorus) 
G D Em C (distortion)
Keep holding on
Cause you know we'll make it through,
We'll make it through
Just stay strong
Cause you know i'm here for you
I'm here for you
There's nothing you can say, nothing you can do
There's no other way when it comes to the truth
So keep holding on
Cause you know we'll make it through, we'll make it through.

(verse 2 - same as before)
So far away I wish you were here
Before it's too late this could all disapear
Before the doors close, this comes to an end
But with you by my side I will fight and defend
I'll fight and defend yeah yeah.

(chorus) G D Em C

(bridge)
Am
Hear me when I say, when I say
C
I believe
Am                                       Em
Nothings gonna change, nothings gonna change destiny
Am
What ever is ment to be
       Em
Will work out perfectly
C
yeah yeah yeah yeahladadadadada...

I Dont Want To Know Chords – Fleetwood Mac V2

Capo II

A E D E D E   A E D E/E  2x  

A               E        D           E
I don't want to know the reasons why love keeps,
A        E          D        E 
right on walking on down the line
A             E             D             E
I don't wanna stand between you and love, honey,
A           D           E   D/E
I just want you to feel fine

A               E        D           E
I don't want to know the reasons why love keeps,
A        E          D        E 
right on walking on down the line
A             E             D             E
I don't wanna stand between you and love, honey,
A           D           E   D/E  (A D/E)
I just want you to feel fine

A       D E  (A D/E)
Finally baby,
    A              D    E  (A D/E)
the truth has come down now
A      D              E     (A D/E)
Take a listen to your spirit,
     A          D  E  (A D/E)
it's crying out loud.
A         D   E  (A D/E)
Trying to believe
            A                D     E    (A D/E)
You say you love me, but you don't know
           A             D   E   (A D/E)
You got me rockin' and a-reelin',
A   D        (A D/E)
Oh, oh, yeah
  E
A-Haa

A               E        D           E
I don't want to know the reasons why love keeps,
A        E          D        E 
right on walking on down the line
A             E             D             E
I don't wanna stand between you and love, honey,
A           D           E   D/E
I just want you to feel fine

A               E        D           E
I don't want to know the reasons why love keeps,
A        E          D        E 
right on walking on down the line
A             E             D             E
I don't wanna stand between you and love, honey,
A           D           E   D/E (A D/E)
I just want you to feel fine

A       D E  (A D/E)
Finally baby,
    A              D  E  (A D/E)
the truth has been told
        A                D  E  (A D/E)
Now you tell me that I m crazy
     A              D      E   (A D/E)
It s nothing that I didn t know
A      D     E    (A D/E)
Trying to survive
            A                D     E   (A D/E)
You say you love me, but you don't know
           A             D   E   (A D/E)
You got me rockin' and a-reelin',
A   D        (A D/E)
Oh, oh, yeah

A               E        D           E
I don't want to know the reasons why love keeps,
A        E          D        E 
right on walking on down the line
A             E             D             E
I don't wanna stand between you and love, honey,
A           E      D             E   
I just want you to take a little time

A               E        D           E
I don't want to know the reasons why love keeps,
A        E          D        E 
right on walking on down the line
A             E             D             E
I don't wanna stand between you and love, honey,
A           D           E   D/E
I just want you to feel fine

break  A E D E 4x

A
Aaaaaaaaaaah

A               E  D A
I don't want to know

Set8

Hound Dog Chords – Elvis Presley V4

                        G
You ain't nothing but a hound dog - Crying all the time
                        C7
You ain't nothing but a hound dog - Crying all the time
                D7                            C7                  G
Well, you ain't never caught a rabbit and you ain't no friends of mine

                  G
They said you was high-classed

but that was just a lie
                  C7
They said you was high-classed
                    G
but that was just a lie
                D7
Well, you ain't never caught a rabbit 
        C7                  G
and you ain't no friends of mine

                       G
You ain't nothing but a hound dog - Crying all the time
                        C7
You ain't nothing but a hound dog - Crying all the time
                D7                            C7                  G
Well, you ain't never caught a rabbit and you ain't no friends of mine

                  G
They said you was high-classed

but that was just a lie
                  C7
They said you was high-classed
                    G
but that was just a lie
                D7
Well, you ain't never caught a rabbit 
        C7                  G
and you ain't no friends of mine

                       G
You ain't nothing but a hound dog - Crying all the time
                        C7
You ain't nothing but a hound dog - Crying all the time
                D7                            C7                  G
Well, you ain't never caught a rabbit and you ain't no friends of mine

Set8

I Guess Thats Why They Call It The Blues Chords – Elton John V3

C G F 2x

G
Don't wish it away
              F                 C    F C F C F
Don't look at it s like it's forever
C               G
Between you and me
                 Bm
I could honestly say
     F                   C     F C F C F
That things can only get better

    C          G
And while I'm away,
B7                    Em
dust out the demons inside
                C
And it won't be long
       Em         G
Before you and me run
                    Am
To the place in our hearts
F        G   C G Am G
Where we hide

      C         
And I guess that's why
     G           F
they call it the blues
           C
Time on my hands,
         G               F     
could be time spent with you
C             G
Laughing like children,
            Am
living like lovers,
C            F                  D
rolling like thunder, under the covers
      F                
And I guess that's why
     G           C    Em F
they call it the blues

     G
Just stare into space
Em         F            C    F C F C F
Picture my face in your hands
C             G
Live for each second
            Bm
Without hesitation
    F                     C  F C F C F
And never forget I'm your man

C          G
Wait on me girl
B7         Em          G
Cry in the night if it helps
    G7        C                  G
But more than ever I simply love you
            Am   F      G  C G Am G
More than I love life itself

      C         
And I guess that's why
     G           F
they call it the blues
           C
Time on my hands,
         G               F     
could be time spent with you
C             G
Laughing like children,
            Am
living like lovers,
C            F                  D
rolling like thunder, under the covers
      F                
And I guess that's why
     G           C     C G F
they call it the blues

C          G
Wait on me girl
B7         Em          G
Cry in the night if it helps
    G7        C                  G
But more than ever I simply love you
            Am   F      G  C G Am G
More than I love life itself

      C         
And I guess that's why
     G           F
they call it the blues
           C
Time on my hands,
         G               F     
could be time spent with you
C             G
Laughing like children,
            Am
living like lovers,
C            F                  D
rolling like thunder, under the covers
      F                
And I guess that's why
     G           C    Em F
they call it the blues

      F                
And I guess that's why
     G           C    
they call it the blues  2x

Set8